  0
SECTION
  2
HEADER
  9
$ACADVER
  1
AC1014
  9
$DWGCODEPAGE
  3
ANSI_1252
  9
$INSBASE
 10
0.0
 20
0.0
 30
0.0
  9
$EXTMIN
 10
17.49540054
 20
-59.76432834
  9
$EXTMAX
 10
25.05449915
 20
-54.27839056
  9
$LIMMIN
 10
17.49540054
 20
-59.76432834
  9
$LIMMAX
 10
25.05449915
 20
-54.27839056
  9
$ORTHOMODE
 70
     0
  9
$REGENMODE
 70
     1
  9
$FILLMODE
 70
     1
  9
$QTEXTMODE
 70
     0
  9
$MIRRTEXT
 70
     1
  9
$DRAGMODE
 70
     2
  9
$LTSCALE
 40
0.01
  9
$OSMODE
 70
     0
  9
$ATTMODE
 70
     1
  9
$TEXTSIZE
 40
3.5
  9
$TRACEWID
 40
1.0
  9
$TEXTSTYLE
  7
STANDARD
  9
$CLAYER
  8
0
  9
$CELTYPE
  6
BYLAYER
  9
$CECOLOR
 62
   256
  9
$DIMSCALE
 40
1.0
  9
$DIMASZ
 40
4.0
  9
$DIMEXO
 40
5.0
  9
$DIMDLI
 40
10.0
  9
$DIMRND
 40
0.0
  9
$DIMDLE
 40
2.0
  9
$DIMEXE
 40
2.0
  9
$DIMTP
 40
0.0
  9
$DIMTM
 40
0.0
  9
$DIMTXT
 40
1.6
  9
$DIMCEN
 40
1.5
  9
$DIMTSZ
 40
0.0
  9
$DIMTOL
 70
     0
  9
$DIMLIM
 70
     0
  9
$DIMTIH
 70
     1
  9
$DIMTOH
 70
     0
  9
$DIMSE1
 70
     0
  9
$DIMSE2
 70
     0
  9
$DIMTAD
 70
     1
  9
$DIMZIN
 70
     8
  9
$DIMBLK
  1

  9
$DIMASO
 70
     1
  9
$DIMSHO
 70
     1
  9
$DIMPOST
  1

  9
$DIMAPOST
  1

  9
$DIMALT
 70
     0
  9
$DIMALTD
 70
     2
  9
$DIMALTF
 40
25.4
  9
$DIMLFAC
 40
1.0
  9
$DIMTOFL
 70
     0
  9
$DIMTVP
 40
0.0
  9
$DIMTIX
 70
     0
  9
$DIMSOXD
 70
     0
  9
$DIMSAH
 70
     0
  9
$DIMBLK1
  1

  9
$DIMBLK2
  1

  9
$DIMSTYLE
  2
*UNNAMED
  9
$DIMCLRD
 70
     9
  9
$DIMCLRE
 70
     9
  9
$DIMCLRT
 70
     4
  9
$DIMTFAC
 40
1.0
  9
$DIMGAP
 40
0.09
  9
$DIMUNIT
 70
     2
  9
$LUNITS
 70
     2
  9
$LUPREC
 70
     6
  9
$AXISMODE
 70
     0
  9
$AXISUNIT
 10
0.0
 20
0.0
  9
$SKETCHINC
 40
0.1
  9
$FILLETRAD
 40
0.0
  9
$AUNITS
 70
     0
  9
$AUPREC
 70
     0
  9
$MENU
  1
ACAD
  9
$ELEVATION
 40
0.0
  9
$PELEVATION
 40
0.0
  9
$THICKNESS
 40
0.0
  9
$LIMCHECK
 70
     0
  9
$BLIPMODE
 70
     1
  9
$CHAMFERA
 40
0.0
  9
$CHAMFERB
 40
0.0
  9
$SKPOLY
 70
     1
  9
$TDCREATE
 40
2456705.0000000000
  9
$TDUPDATE
 40
2456705.0000000000
  9
$TDINDWG
 40
0.0
  9
$TDUSRTIMER
 40
0.0
  9
$USRTIMER
 70
     1
  9
$ANGBASE
 50
0.0
  9
$ANGDIR
 70
     0
  9
$PDMODE
 70
     0
  9
$PDSIZE
 40
0.0
  9
$PLINEWID
 40
0.0
  9
$COORDS
 70
     2
  9
$SPLFRAME
 70
     0
  9
$SPLINETYPE
 70
     6
  9
$SPLINESEGS
 70
     8
  9
$ATTDIA
 70
     1
  9
$ATTREQ
 70
     1
  9
$HANDLING
 70
     1
  9
$HANDSEED
  5
     69C
  9
$SURFTAB1
 70
     6
  9
$SURFTAB2
 70
     6
  9
$SURFTYPE
 70
     6
  9
$SURFU
 70
     6
  9
$SURFV
 70
     6
  9
$UCSNAME
  2

  9
$UCSORG
 10
0.0
 20
0.0
 30
0.0
  9
$UCSXDIR
 10
1.0
 20
0.0
 30
0.0
  9
$UCSYDIR
 10
0.0
 20
1.0
 30
0.0
  9
$PUCSNAME
  2

  9
$PUCSORG
 10
0.0
 20
0.0
 30
0.0
  9
$PUCSXDIR
 10
1.0
 20
0.0
 30
0.0
  9
$PUCSYDIR
 10
0.0
 20
1.0
 30
0.0
  9
$USERI1
 70
     0
  9
$USERI2
 70
     0
  9
$USERI3
 70
     0
  9
$USERI4
 70
     0
  9
$USERI5
 70
     0
  9
$USERR1
 40
0.0
  9
$USERR2
 40
0.0
  9
$USERR3
 40
0.0
  9
$USERR4
 40
0.0
  9
$USERR5
 40
0.0
  9
$WORLDVIEW
 70
     1
  9
$SHADEDGE
 70
     3
  9
$SHADEDIF
 70
    70
  9
$TILEMODE
 70
     1
  9
$MAXACTVP
 70
    16
  9
$PINSBASE
 10
0.0
 20
0.0
 30
0.0
  9
$PLIMCHECK
 70
     0
  9
$PEXTMIN
 10
1.0000000000000E+20
 20
1.0000000000000E+20
 30
1.0000000000000E+20
  9
$PEXTMAX
 10
-1.0000000000000E+20
 20
-1.0000000000000E+20
 30
-1.0000000000000E+20
  9
$PLIMMIN
 10
0.0
 20
0.0
  9
$UNITMODE
 70
     0
  9
$VISRETAIN
 70
     0
  9
$MEASUREMENT
 70
     1
  0
ENDSEC
  0
SECTION
  2
TABLES
  0
TABLE
  2
VPORT
  5
36
100
AcDbSymbolTable
 70
     1
  0
ENDTAB
  0
TABLE
  2
STYLE
  5
37
100
AcDbSymbolTable
 70
     4
  0
STYLE
  5
38
100
AcDbSymbolTableRecord
100
AcDbTextStyleTableRecord
  2
STANDARD
 70
     0
 40
0.0
 41
1.0
 50
0.0
 71
     0
 42
3.5
  3
MONOTXT
  4

  0
STYLE
  5
39
100
AcDbSymbolTableRecord
100
AcDbTextStyleTableRecord
  2
CADWORK1
 70
     0
 40
0.0
 41
1.0
 50
0.0
 71
     0
 42
3.5
  3
MONOTXT
  4

  0
STYLE
  5
3A
100
AcDbSymbolTableRecord
100
AcDbTextStyleTableRecord
  2
MONOTXT
 70
     0
 40
0.0
 41
1.0
 50
0.0
 71
     0
 42
3.5
  3
MONOTXT
  4

  0
STYLE
  5
3B
100
AcDbSymbolTableRecord
100
AcDbTextStyleTableRecord
  2
FRUTIGER_55_ROMAN
 70
     0
 40
0.0
 41
1.0
 50
0.0
 71
     0
 42
3.5
  3

  4

1001
ACAD
1000
Frutiger 55 Roman
1071
        0
  0
STYLE
  5
3C
100
AcDbSymbolTableRecord
100
AcDbTextStyleTableRecord
  2
ARIAL
 70
     0
 40
0.0
 41
1.0
 50
0.0
 71
     0
 42
3.5
  3

  4

1001
ACAD
1000
Arial
1071
        0
  0
ENDTAB
  0
TABLE
  2
LTYPE
  5
3D
100
AcDbSymbolTable
 70
    14
  0
LTYPE
  5
3E
100
AcDbSymbolTableRecord
100
AcDbLinetypeTableRecord
  2
BYBLOCK
 70
    64
  3

 72
    65
 73
     0
 40
0.0
  0
LTYPE
  5
3F
100
AcDbSymbolTableRecord
100
AcDbLinetypeTableRecord
  2
BYLAYER
 70
    64
  3

 72
    65
 73
     0
 40
0.0
  0
LTYPE
  5
40
100
AcDbSymbolTableRecord
100
AcDbLinetypeTableRecord
  2
CONTINUOUS
 70
    64
  3
Solid line
 72
    65
 73
     0
 40
0.0
  0
LTYPE
  5
41
100
AcDbSymbolTableRecord
100
AcDbLinetypeTableRecord
  2
HIDDEN
 70
    64
  3
__ __ __ __ __ __ __ __ __ __ __ __ __ __ __ __
 72
    65
 73
     2
 40
1.875
 49
1.25
 74
     0
 49
-0.625
 74
     0
  0
LTYPE
  5
42
100
AcDbSymbolTableRecord
100
AcDbLinetypeTableRecord
  2
DASHDOT
 70
    64
  3
 __ . __ . __ . __ . __ . __ . __ . __ . __ . __
 72
    65
 73
     4
 40
10.0
 49
5.0
 74
     0
 49
-2.5
 74
     0
 49
0.0
 74
     0
 49
-2.5
 74
     0
  0
LTYPE
  5
43
100
AcDbSymbolTableRecord
100
AcDbLinetypeTableRecord
  2
CENTER
 70
    64
  3
 ____ _ ____ _ ____ _ ____ _ ____ _ ____ _ ____
 72
    65
 73
     4
 40
20.0
 49
12.5
 74
     0
 49
-2.5
 74
     0
 49
2.5
 74
     0
 49
-2.5
 74
     0
  0
LTYPE
  5
44
100
AcDbSymbolTableRecord
100
AcDbLinetypeTableRecord
  2
CADWORK_LK1
 70
    64
  3
User defined cadwork LK1
 72
    65
 73
     2
 40
1.25
 49
0.5
 74
     0
 49
-0.75
 74
     0
  0
LTYPE
  5
45
100
AcDbSymbolTableRecord
100
AcDbLinetypeTableRecord
  2
CADWORK_AC4
 70
    64
  3
User defined cadwork AC4
 72
    65
 73
     2
 40
10.0
 49
50.0
 74
     0
 49
40.0
 74
     0
  0
LTYPE
  5
46
100
AcDbSymbolTableRecord
100
AcDbLinetypeTableRecord
  2
DAL
 70
    64
  3
Solid line (for MAPS)
 72
    65
 73
     0
 40
0.0
  0
LTYPE
  5
47
100
AcDbSymbolTableRecord
100
AcDbLinetypeTableRecord
  2
MUR
 70
    64
  3
Solid line (for MAPS)
 72
    65
 73
     0
 40
0.0
  0
LTYPE
  5
48
100
AcDbSymbolTableRecord
100
AcDbLinetypeTableRecord
  2
SOM
 70
    64
  3
Solid line (for MAPS)
 72
    65
 73
     0
 40
0.0
  0
LTYPE
  5
49
100
AcDbSymbolTableRecord
100
AcDbLinetypeTableRecord
  2
COL
 70
    64
  3
Solid line (for MAPS)
 72
    65
 73
     0
 40
0.0
  0
LTYPE
  5
4A
100
AcDbSymbolTableRecord
100
AcDbLinetypeTableRecord
  2
LGN
 70
    64
  3
Solid line (for MAPS)
 72
    65
 73
     0
 40
0.0
  0
LTYPE
  5
4B
100
AcDbSymbolTableRecord
100
AcDbLinetypeTableRecord
  2
PNT
 70
    64
  3
Solid line (for MAPS)
 72
    65
 73
     0
 40
0.0
  0
ENDTAB
  0
TABLE
  2
LAYER
  5
4C
100
AcDbSymbolTable
 70
    44
  0
LAYER
  5
4D
100
AcDbSymbolTableRecord
100
AcDbLayerTableRecord
  2
leer
 70
     0
 62
     7
  6
CONTINUOUS
370
    -3
  0
LAYER
  5
4E
100
AcDbSymbolTableRecord
100
AcDbLayerTableRecord
  2
eg
 70
     0
 62
     7
  6
CONTINUOUS
370
     5
  0
LAYER
  5
4F
100
AcDbSymbolTableRecord
100
AcDbLayerTableRecord
  2
detail
 70
     0
 62
     7
  6
CONTINUOUS
370
     5
  0
LAYER
  5
50
100
AcDbSymbolTableRecord
100
AcDbLayerTableRecord
  2
detail
 70
     0
 62
     7
  6
CONTINUOUS
370
     5
  0
LAYER
  5
51
100
AcDbSymbolTableRecord
100
AcDbLayerTableRecord
  2
ug-kanalisation
 70
     0
 62
     7
  6
CONTINUOUS
370
    18
  0
LAYER
  5
52
100
AcDbSymbolTableRecord
100
AcDbLayerTableRecord
  2
Layer_6
 70
     0
 62
     7
  6
CONTINUOUS
370
    -3
  0
LAYER
  5
53
100
AcDbSymbolTableRecord
100
AcDbLayerTableRecord
  2
projekt
 70
     0
 62
     7
  6
CONTINUOUS
370
    -3
  0
LAYER
  5
54
100
AcDbSymbolTableRecord
100
AcDbLayerTableRecord
  2
projekt
 70
     0
 62
     7
  6
CONTINUOUS
370
    -3
  0
LAYER
  5
55
100
AcDbSymbolTableRecord
100
AcDbLayerTableRecord
  2
projekt
 70
     0
 62
     7
  6
CONTINUOUS
370
    -3
  0
LAYER
  5
56
100
AcDbSymbolTableRecord
100
AcDbLayerTableRecord
  2
EG
 70
     0
 62
     7
  6
CONTINUOUS
370
     5
  0
LAYER
  5
57
100
AcDbSymbolTableRecord
100
AcDbLayerTableRecord
  2
TEAM-DET1
 70
     0
 62
     5
  6
CONTINUOUS
370
    25
  0
LAYER
  5
58
100
AcDbSymbolTableRecord
100
AcDbLayerTableRecord
  2
TEAM-BODY
 70
     0
 62
     5
  6
CONTINUOUS
370
    25
  0
LAYER
  5
59
100
AcDbSymbolTableRecord
100
AcDbLayerTableRecord
  2
TEAM-INSP
 70
     0
 62
     5
  6
CONTINUOUS
370
    25
  0
LAYER
  5
5A
100
AcDbSymbolTableRecord
100
AcDbLayerTableRecord
  2
S_Einrichtung
 70
     0
 62
     5
  6
CONTINUOUS
370
    25
  0
LAYER
  5
5B
100
AcDbSymbolTableRecord
100
AcDbLayerTableRecord
  2
Layer_15
 70
     0
 62
     7
  6
CONTINUOUS
370
     5
  0
LAYER
  5
5C
100
AcDbSymbolTableRecord
100
AcDbLayerTableRecord
  2
schnitt
 70
     0
 62
     7
  6
CONTINUOUS
370
     5
  0
LAYER
  5
5D
100
AcDbSymbolTableRecord
100
AcDbLayerTableRecord
  2
Layer_3
 70
     0
 62
     7
  6
CONTINUOUS
370
     5
  0
LAYER
  5
5E
100
AcDbSymbolTableRecord
100
AcDbLayerTableRecord
  2
0
 70
     0
 62
     7
  6
CONTINUOUS
370
    -3
  0
LAYER
  5
5F
100
AcDbSymbolTableRecord
100
AcDbLayerTableRecord
  2
Schraffur
 70
     0
 62
     8
  6
CONTINUOUS
370
    -3
  0
LAYER
  5
60
100
AcDbSymbolTableRecord
100
AcDbLayerTableRecord
  2
Umriss02
 70
     0
 62
     1
  6
CONTINUOUS
370
    -3
  0
LAYER
  5
61
100
AcDbSymbolTableRecord
100
AcDbLayerTableRecord
  2
Umriss05
 70
     0
 62
     3
  6
CONTINUOUS
370
    -3
  0
LAYER
  5
62
100
AcDbSymbolTableRecord
100
AcDbLayerTableRecord
  2
Achse
 70
     0
 62
   104
  6
DASHDOT
370
    -3
  0
LAYER
  5
63
100
AcDbSymbolTableRecord
100
AcDbLayerTableRecord
  2
Averdeckt
 70
     0
 62
   130
  6
CADWORK_AC4
370
    -3
  0
LAYER
  5
64
100
AcDbSymbolTableRecord
100
AcDbLayerTableRecord
  2
Glas
 70
     0
 62
     4
  6
CONTINUOUS
370
    -3
  0
LAYER
  5
65
100
AcDbSymbolTableRecord
100
AcDbLayerTableRecord
  2
ACHSEN
 70
     0
 62
     7
  6
CONTINUOUS
370
    -3
  0
LAYER
  5
66
100
AcDbSymbolTableRecord
100
AcDbLayerTableRecord
  2
SCHNITTLINIE
 70
     0
 62
     5
  6
CONTINUOUS
370
    -3
  0
LAYER
  5
67
100
AcDbSymbolTableRecord
100
AcDbLayerTableRecord
  2
SCHRAFFUREN
 70
     0
 62
     7
  6
CONTINUOUS
370
    -3
  0
LAYER
  5
68
100
AcDbSymbolTableRecord
100
AcDbLayerTableRecord
  2
TEXTE
 70
     0
 62
     7
  6
CONTINUOUS
370
    -3
  0
LAYER
  5
69
100
AcDbSymbolTableRecord
100
AcDbLayerTableRecord
  2
SCHRAFFUR
 70
     0
 62
     3
  6
CONTINUOUS
370
    -3
  0
LAYER
  5
6A
100
AcDbSymbolTableRecord
100
AcDbLayerTableRecord
  2
ISOLATION
 70
     0
 62
     3
  6
CONTINUOUS
370
    -3
  0
LAYER
  5
6B
100
AcDbSymbolTableRecord
100
AcDbLayerTableRecord
  2
GLAS
 70
     0
 62
     3
  6
CONTINUOUS
370
    -3
  0
LAYER
  5
6C
100
AcDbSymbolTableRecord
100
AcDbLayerTableRecord
  2
ISOLIERGLAS
 70
     0
 62
     4
  6
CONTINUOUS
370
    -3
  0
LAYER
  5
6D
100
AcDbSymbolTableRecord
100
AcDbLayerTableRecord
  2
DOTS
 70
     0
 62
     2
  6
CONTINUOUS
370
    -3
  0
LAYER
  5
6E
100
AcDbSymbolTableRecord
100
AcDbLayerTableRecord
  2
GLASLEISTE
 70
     0
 62
     7
  6
CONTINUOUS
370
    -3
  0
LAYER
  5
6F
100
AcDbSymbolTableRecord
100
AcDbLayerTableRecord
  2
WEICHLIPPE
 70
     0
 62
     3
  6
CONTINUOUS
370
    -3
  0
LAYER
  5
70
100
AcDbSymbolTableRecord
100
AcDbLayerTableRecord
  2
GLASFALZEINLAGE
 70
     0
 62
     4
  6
CONTINUOUS
370
    -3
  0
LAYER
  5
71
100
AcDbSymbolTableRecord
100
AcDbLayerTableRecord
  2
FESTVERGLASUNGSDICHTUNG
 70
     0
 62
     3
  6
CONTINUOUS
370
    -3
  0
LAYER
  5
72
100
AcDbSymbolTableRecord
100
AcDbLayerTableRecord
  2
VERKLOTZUNG30
 70
     0
 62
     4
  6
CONTINUOUS
370
    -3
  0
LAYER
  5
73
100
AcDbSymbolTableRecord
100
AcDbLayerTableRecord
  2
RAHMENPROFIL
 70
     0
 62
     7
  6
CONTINUOUS
370
    -3
  0
LAYER
  5
74
100
AcDbSymbolTableRecord
100
AcDbLayerTableRecord
  2
RAHMENVERSTÄRKUNG
 70
     0
 62
     4
  6
CONTINUOUS
370
    -3
  0
LAYER
  5
75
100
AcDbSymbolTableRecord
100
AcDbLayerTableRecord
  2
lANDFLÄCHEN
 70
     0
 62
     7
  6
CONTINUOUS
370
    18
  0
LAYER
  5
76
100
AcDbSymbolTableRecord
100
AcDbLayerTableRecord
  2
Layer_42
 70
     0
 62
     7
  6
CONTINUOUS
370
     5
  0
LAYER
  5
77
100
AcDbSymbolTableRecord
100
AcDbLayerTableRecord
  2
Layer_43
 70
     0
 62
     7
  6
CONTINUOUS
370
     5
  0
LAYER
  5
78
100
AcDbSymbolTableRecord
100
AcDbLayerTableRecord
  2
Layer_44
 70
     0
 62
     7
  6
CONTINUOUS
370
     5
  0
ENDTAB
  0
TABLE
  2
VIEW
  5
79
100
AcDbSymbolTable
 70
     0
  0
ENDTAB
  0
TABLE
  2
UCS
  5
7A
100
AcDbSymbolTable
 70
     0
  0
ENDTAB
  0
TABLE
  2
APPID
  5
7B
100
AcDbSymbolTable
 70
     1
  0
APPID
  5
7C
100
AcDbSymbolTableRecord
100
AcDbRegAppTableRecord
  2
ACAD
 70
     0
  0
ENDTAB
  0
TABLE
  2
DIMSTYLE
  5
7D
100
AcDbSymbolTable
 70
     0
  0
ENDTAB
  0
TABLE
  2
BLOCK_RECORD
  5
7E
100
AcDbSymbolTable
 70
     0
  0
BLOCK_RECORD
  5
7F
100
AcDbSymbolTableRecord
100
AcDbBlockTableRecord
  2
*MODEL_SPACE
  0
BLOCK_RECORD
  5
80
100
AcDbSymbolTableRecord
100
AcDbBlockTableRecord
  2
*PAPER_SPACE
  0
BLOCK_RECORD
  5
81
100
AcDbSymbolTableRecord
100
AcDbBlockTableRecord
  2
CDWK_EXTR_0
  0
BLOCK_RECORD
  5
82
100
AcDbSymbolTableRecord
100
AcDbBlockTableRecord
  2
CDWK_EXTR_1D
  0
BLOCK_RECORD
  5
83
100
AcDbSymbolTableRecord
100
AcDbBlockTableRecord
  2
CDWK_EXTR_1G
  0
BLOCK_RECORD
  5
84
100
AcDbSymbolTableRecord
100
AcDbBlockTableRecord
  2
CDWK_EXTR_2
  0
BLOCK_RECORD
  5
85
100
AcDbSymbolTableRecord
100
AcDbBlockTableRecord
  2
CDWK_EXTR_3
  0
BLOCK_RECORD
  5
86
100
AcDbSymbolTableRecord
100
AcDbBlockTableRecord
  2
CDWK_EXTR_4
  0
BLOCK_RECORD
  5
87
100
AcDbSymbolTableRecord
100
AcDbBlockTableRecord
  2
CDWK_PTTYP0
  0
BLOCK_RECORD
  5
88
100
AcDbSymbolTableRecord
100
AcDbBlockTableRecord
  2
*X1
  0
BLOCK_RECORD
  5
89
100
AcDbSymbolTableRecord
100
AcDbBlockTableRecord
  2
*X2
  0
BLOCK_RECORD
  5
8A
100
AcDbSymbolTableRecord
100
AcDbBlockTableRecord
  2
*X3
  0
BLOCK_RECORD
  5
8B
100
AcDbSymbolTableRecord
100
AcDbBlockTableRecord
  2
*X4
  0
BLOCK_RECORD
  5
8C
100
AcDbSymbolTableRecord
100
AcDbBlockTableRecord
  2
*X5
  0
BLOCK_RECORD
  5
8D
100
AcDbSymbolTableRecord
100
AcDbBlockTableRecord
  2
*X6
  0
BLOCK_RECORD
  5
8E
100
AcDbSymbolTableRecord
100
AcDbBlockTableRecord
  2
*X7
  0
BLOCK_RECORD
  5
8F
100
AcDbSymbolTableRecord
100
AcDbBlockTableRecord
  2
*X8
  0
BLOCK_RECORD
  5
90
100
AcDbSymbolTableRecord
100
AcDbBlockTableRecord
  2
*X9
  0
BLOCK_RECORD
  5
91
100
AcDbSymbolTableRecord
100
AcDbBlockTableRecord
  2
*X10
  0
BLOCK_RECORD
  5
92
100
AcDbSymbolTableRecord
100
AcDbBlockTableRecord
  2
*X11
  0
BLOCK_RECORD
  5
93
100
AcDbSymbolTableRecord
100
AcDbBlockTableRecord
  2
*X12
  0
BLOCK_RECORD
  5
94
100
AcDbSymbolTableRecord
100
AcDbBlockTableRecord
  2
*X13
  0
BLOCK_RECORD
  5
95
100
AcDbSymbolTableRecord
100
AcDbBlockTableRecord
  2
*X14
  0
BLOCK_RECORD
  5
96
100
AcDbSymbolTableRecord
100
AcDbBlockTableRecord
  2
*X15
  0
BLOCK_RECORD
  5
97
100
AcDbSymbolTableRecord
100
AcDbBlockTableRecord
  2
*X16
  0
BLOCK_RECORD
  5
98
100
AcDbSymbolTableRecord
100
AcDbBlockTableRecord
  2
*X17
  0
BLOCK_RECORD
  5
99
100
AcDbSymbolTableRecord
100
AcDbBlockTableRecord
  2
*X18
  0
BLOCK_RECORD
  5
9A
100
AcDbSymbolTableRecord
100
AcDbBlockTableRecord
  2
*X19
  0
BLOCK_RECORD
  5
9B
100
AcDbSymbolTableRecord
100
AcDbBlockTableRecord
  2
*X20
  0
BLOCK_RECORD
  5
9C
100
AcDbSymbolTableRecord
100
AcDbBlockTableRecord
  2
*D1
  0
BLOCK_RECORD
  5
9D
100
AcDbSymbolTableRecord
100
AcDbBlockTableRecord
  2
*D2
  0
BLOCK_RECORD
  5
9E
100
AcDbSymbolTableRecord
100
AcDbBlockTableRecord
  2
*D3
  0
BLOCK_RECORD
  5
9F
100
AcDbSymbolTableRecord
100
AcDbBlockTableRecord
  2
*D4
  0
BLOCK_RECORD
  5
A0
100
AcDbSymbolTableRecord
100
AcDbBlockTableRecord
  2
*D5
  0
BLOCK_RECORD
  5
A1
100
AcDbSymbolTableRecord
100
AcDbBlockTableRecord
  2
*D6
  0
BLOCK_RECORD
  5
A2
100
AcDbSymbolTableRecord
100
AcDbBlockTableRecord
  2
*D7
  0
BLOCK_RECORD
  5
A3
100
AcDbSymbolTableRecord
100
AcDbBlockTableRecord
  2
*D8
  0
BLOCK_RECORD
  5
A4
100
AcDbSymbolTableRecord
100
AcDbBlockTableRecord
  2
*D9
  0
BLOCK_RECORD
  5
A5
100
AcDbSymbolTableRecord
100
AcDbBlockTableRecord
  2
*D10
  0
ENDTAB
  0
ENDSEC
  0
SECTION
  2
BLOCKS
  0
BLOCK
  5
A6
100
AcDbEntity
  8
0
100
AcDbBlockBegin
  2
*MODEL_SPACE
 70
     0
 10
0.0
 20
0.0
 30
0.0
  3
*MODEL_SPACE
  1

  0
ENDBLK
  5
A7
100
AcDbEntity
100
AcDbBlockEnd
  0
BLOCK
  5
A8
100
AcDbEntity
  8
0
100
AcDbBlockBegin
  2
*PAPER_SPACE
 70
     0
 10
0.0
 20
0.0
 30
0.0
  3
*PAPER_SPACE
  1

  0
ENDBLK
  5
A9
100
AcDbEntity
100
AcDbBlockEnd
  0
BLOCK
  5
AA
100
AcDbEntity
  8
0
100
AcDbBlockBegin
  2
CDWK_EXTR_0
 70
     0
 10
0.0
 20
0.0
 30
0.0
  3
CDWK_EXTR_0
  1

  4
Cadwork line-extremity
  0
LINE
  5
AB
100
AcDbEntity
  8
0
 62
     0
370
    -2
100
AcDbLine
 10
0.0
 20
0.0
 30
0.0
 11
2.0
 21
0.5
 31
0.0
  0
LINE
  5
AC
100
AcDbEntity
  8
0
 62
     0
370
    -2
100
AcDbLine
 10
0.0
 20
0.0
 30
0.0
 11
2.0
 21
-0.5
 31
0.0
  0
LINE
  5
AD
100
AcDbEntity
  8
0
 62
     0
370
    -2
100
AcDbLine
 10
2.0
 20
0.5
 30
0.0
 11
2.0
 21
-0.5
 31
0.0
  0
ENDBLK
  5
AE
100
AcDbEntity
100
AcDbBlockEnd
  0
BLOCK
  5
AF
100
AcDbEntity
  8
0
100
AcDbBlockBegin
  2
CDWK_EXTR_1D
 70
     0
 10
0.0
 20
0.0
 30
0.0
  3
CDWK_EXTR_1D
  1

  4
Cadwork line-extremity
  0
LINE
  5
B0
100
AcDbEntity
  8
0
 62
     0
370
    -2
100
AcDbLine
 10
0.0
 20
0.0
 30
0.0
 11
0.0
 21
1.0
 31
0.0
  0
LINE
  5
B1
100
AcDbEntity
  8
0
 62
     0
370
    -2
100
AcDbLine
 10
0.0
 20
1.0
 30
0.0
 11
0.5
 21
1.5
 31
0.0
  0
LINE
  5
B2
100
AcDbEntity
  8
0
 62
     0
370
    -2
100
AcDbLine
 10
0.5
 20
1.5
 30
0.0
 11
1.5
 21
1.5
 31
0.0
  0
ENDBLK
  5
B3
100
AcDbEntity
100
AcDbBlockEnd
  0
BLOCK
  5
B4
100
AcDbEntity
  8
0
100
AcDbBlockBegin
  2
CDWK_EXTR_1G
 70
     0
 10
0.0
 20
0.0
 30
0.0
  3
CDWK_EXTR_1G
  1

  4
Cadwork line-extremity
  0
LINE
  5
B5
100
AcDbEntity
  8
0
 62
     0
370
    -2
100
AcDbLine
 10
0.0
 20
0.0
 30
0.0
 11
0.0
 21
-1.0
 31
0.0
  0
LINE
  5
B6
100
AcDbEntity
  8
0
 62
     0
370
    -2
100
AcDbLine
 10
0.0
 20
-1.0
 30
0.0
 11
0.5
 21
-1.5
 31
0.0
  0
LINE
  5
B7
100
AcDbEntity
  8
0
 62
     0
370
    -2
100
AcDbLine
 10
0.5
 20
-1.5
 30
0.0
 11
1.5
 21
-1.5
 31
0.0
  0
ENDBLK
  5
B8
100
AcDbEntity
100
AcDbBlockEnd
  0
BLOCK
  5
B9
100
AcDbEntity
  8
0
100
AcDbBlockBegin
  2
CDWK_EXTR_2
 70
     0
 10
0.0
 20
0.0
 30
0.0
  3
CDWK_EXTR_2
  1

  4
Cadwork line-extremity
  0
SOLID
  5
BA
100
AcDbEntity
  8
0
 62
     0
100
AcDbTrace
 10
0.0
 20
0.0
 11
2.0
 21
0.5
 12
2.0
 22
-0.5
 13
2.0
 23
-0.5
  0
ENDBLK
  5
BB
100
AcDbEntity
100
AcDbBlockEnd
  0
BLOCK
  5
BC
100
AcDbEntity
  8
0
100
AcDbBlockBegin
  2
CDWK_EXTR_3
 70
     0
 10
0.0
 20
0.0
 30
0.0
  3
CDWK_EXTR_3
  1

  4
Cadwork line-extremity
  0
SOLID
  5
BD
100
AcDbEntity
  8
0
 62
     0
100
AcDbTrace
 10
0.0
 20
0.0
 11
2.0
 21
0.5
 12
2.0
 22
-0.5
 13
2.0
 23
-0.5
  0
LINE
  5
BE
100
AcDbEntity
  8
0
 62
     0
370
    -2
100
AcDbLine
 10
0.0
 20
1.0
 30
0.0
 11
0.0
 21
-1.0
 31
0.0
  0
ENDBLK
  5
BF
100
AcDbEntity
100
AcDbBlockEnd
  0
BLOCK
  5
C0
100
AcDbEntity
  8
0
100
AcDbBlockBegin
  2
CDWK_EXTR_4
 70
     0
 10
0.0
 20
0.0
 30
0.0
  3
CDWK_EXTR_4
  1

  4
Cadwork line-extremity
  0
HATCH
  5
C1
100
AcDbEntity
  8
0
 62
     0
370
    -2
100
AcDbHatch
 10
0.0
 20
0.0
 30
0.0
210
0.0
220
0.0
230
1.0
  2
SOLID
 70
     1
 71
     0
 91
        1
 92
        1
 93
        1
 72
     2
 10
0.0
 20
0.0
 40
0.5
 50
0.0
 51
360.0
 73
     1
 97
        0
 75
     0
 76
     1
 98
        1
 10
0.0
 20
0.0
  0
ENDBLK
  5
C2
100
AcDbEntity
100
AcDbBlockEnd
  0
BLOCK
  5
C3
100
AcDbEntity
  8
0
100
AcDbBlockBegin
  2
CDWK_PTTYP0
 70
     0
 10
0.0
 20
0.0
 30
0.0
  3
CDWK_PTTYP0
  1

  4
Cadwork point
  0
POINT
  5
C4
100
AcDbEntity
  8
0
 62
     0
100
AcDbPoint
 10
0.0
 20
0.0
 30
0.0
  0
ENDBLK
  5
C5
100
AcDbEntity
100
AcDbBlockEnd
  0
BLOCK
  5
C6
100
AcDbEntity
  8
detail
100
AcDbBlockBegin
  2
*X1
 70
     1
 10
0.0
 20
0.0
 30
0.0
  3
*X1
  1

  4
Cadwork hatch
  0
LINE
  5
C7
100
AcDbEntity
  8
detail
 62
    16
  6
CONTINUOUS
370
    -2
100
AcDbLine
 10
18.575
 20
-55.24731656
 30
0.0
 11
18.575
 21
-55.26731656
 31
0.0
  0
LINE
  5
C8
100
AcDbEntity
  8
detail
 62
    16
  6
CONTINUOUS
370
    -2
100
AcDbLine
 10
18.6
 20
-55.24731656
 30
0.0
 11
18.6
 21
-55.26731656
 31
0.0
  0
LINE
  5
C9
100
AcDbEntity
  8
detail
 62
    16
  6
CONTINUOUS
370
    -2
100
AcDbLine
 10
18.625
 20
-55.24731656
 30
0.0
 11
18.625
 21
-55.26731656
 31
0.0
  0
LINE
  5
CA
100
AcDbEntity
  8
detail
 62
    16
  6
CONTINUOUS
370
    -2
100
AcDbLine
 10
18.65
 20
-55.24731656
 30
0.0
 11
18.65
 21
-55.26731656
 31
0.0
  0
LINE
  5
CB
100
AcDbEntity
  8
detail
 62
    16
  6
CONTINUOUS
370
    -2
100
AcDbLine
 10
18.675
 20
-55.24731656
 30
0.0
 11
18.675
 21
-55.26731656
 31
0.0
  0
LINE
  5
CC
100
AcDbEntity
  8
detail
 62
    16
  6
CONTINUOUS
370
    -2
100
AcDbLine
 10
18.7
 20
-55.24731656
 30
0.0
 11
18.7
 21
-55.26731656
 31
0.0
  0
LINE
  5
CD
100
AcDbEntity
  8
detail
 62
    16
  6
CONTINUOUS
370
    -2
100
AcDbLine
 10
18.725
 20
-55.24731656
 30
0.0
 11
18.725
 21
-55.26731656
 31
0.0
  0
LINE
  5
CE
100
AcDbEntity
  8
detail
 62
    16
  6
CONTINUOUS
370
    -2
100
AcDbLine
 10
18.75
 20
-55.24731656
 30
0.0
 11
18.75
 21
-55.26731656
 31
0.0
  0
LINE
  5
CF
100
AcDbEntity
  8
detail
 62
    16
  6
CONTINUOUS
370
    -2
100
AcDbLine
 10
18.775
 20
-55.24731656
 30
0.0
 11
18.775
 21
-55.26731656
 31
0.0
  0
LINE
  5
D0
100
AcDbEntity
  8
detail
 62
    16
  6
CONTINUOUS
370
    -2
100
AcDbLine
 10
18.8
 20
-55.24731656
 30
0.0
 11
18.8
 21
-55.26731656
 31
0.0
  0
LINE
  5
D1
100
AcDbEntity
  8
detail
 62
    16
  6
CONTINUOUS
370
    -2
100
AcDbLine
 10
18.825
 20
-55.24731656
 30
0.0
 11
18.825
 21
-55.26731656
 31
0.0
  0
LINE
  5
D2
100
AcDbEntity
  8
detail
 62
    16
  6
CONTINUOUS
370
    -2
100
AcDbLine
 10
18.85
 20
-55.24731656
 30
0.0
 11
18.85
 21
-55.26731656
 31
0.0
  0
LINE
  5
D3
100
AcDbEntity
  8
detail
 62
    16
  6
CONTINUOUS
370
    -2
100
AcDbLine
 10
18.875
 20
-55.24731656
 30
0.0
 11
18.875
 21
-55.26731656
 31
0.0
  0
LINE
  5
D4
100
AcDbEntity
  8
detail
 62
    16
  6
CONTINUOUS
370
    -2
100
AcDbLine
 10
18.9
 20
-55.24731656
 30
0.0
 11
18.9
 21
-55.26731656
 31
0.0
  0
LINE
  5
D5
100
AcDbEntity
  8
detail
 62
    16
  6
CONTINUOUS
370
    -2
100
AcDbLine
 10
18.925
 20
-55.24731656
 30
0.0
 11
18.925
 21
-55.26731656
 31
0.0
  0
LINE
  5
D6
100
AcDbEntity
  8
detail
 62
    16
  6
CONTINUOUS
370
    -2
100
AcDbLine
 10
18.95
 20
-55.24731656
 30
0.0
 11
18.95
 21
-55.26731656
 31
0.0
  0
LINE
  5
D7
100
AcDbEntity
  8
detail
 62
    16
  6
CONTINUOUS
370
    -2
100
AcDbLine
 10
18.975
 20
-55.24731656
 30
0.0
 11
18.975
 21
-55.26731656
 31
0.0
  0
LINE
  5
D8
100
AcDbEntity
  8
detail
 62
    16
  6
CONTINUOUS
370
    -2
100
AcDbLine
 10
19.0
 20
-55.24731656
 30
0.0
 11
19.0
 21
-55.26731656
 31
0.0
  0
LINE
  5
D9
100
AcDbEntity
  8
detail
 62
    16
  6
CONTINUOUS
370
    -2
100
AcDbLine
 10
19.025
 20
-55.24731656
 30
0.0
 11
19.025
 21
-55.26731656
 31
0.0
  0
LINE
  5
DA
100
AcDbEntity
  8
detail
 62
    16
  6
CONTINUOUS
370
    -2
100
AcDbLine
 10
19.05
 20
-55.24731656
 30
0.0
 11
19.05
 21
-55.26731656
 31
0.0
  0
LINE
  5
DB
100
AcDbEntity
  8
detail
 62
    16
  6
CONTINUOUS
370
    -2
100
AcDbLine
 10
19.075
 20
-55.24731656
 30
0.0
 11
19.075
 21
-55.26731656
 31
0.0
  0
LINE
  5
DC
100
AcDbEntity
  8
detail
 62
    16
  6
CONTINUOUS
370
    -2
100
AcDbLine
 10
19.1
 20
-55.24731656
 30
0.0
 11
19.1
 21
-55.26731656
 31
0.0
  0
LINE
  5
DD
100
AcDbEntity
  8
detail
 62
    16
  6
CONTINUOUS
370
    -2
100
AcDbLine
 10
19.125
 20
-55.24731656
 30
0.0
 11
19.125
 21
-55.26731656
 31
0.0
  0
LINE
  5
DE
100
AcDbEntity
  8
detail
 62
    16
  6
CONTINUOUS
370
    -2
100
AcDbLine
 10
19.15
 20
-55.24731656
 30
0.0
 11
19.15
 21
-55.26731656
 31
0.0
  0
LINE
  5
DF
100
AcDbEntity
  8
detail
 62
    16
  6
CONTINUOUS
370
    -2
100
AcDbLine
 10
19.175
 20
-55.24731656
 30
0.0
 11
19.175
 21
-55.26731656
 31
0.0
  0
LINE
  5
E0
100
AcDbEntity
  8
detail
 62
    16
  6
CONTINUOUS
370
    -2
100
AcDbLine
 10
19.2
 20
-55.24731656
 30
0.0
 11
19.2
 21
-55.26731656
 31
0.0
  0
LINE
  5
E1
100
AcDbEntity
  8
detail
 62
    16
  6
CONTINUOUS
370
    -2
100
AcDbLine
 10
19.225
 20
-55.24731656
 30
0.0
 11
19.225
 21
-55.26731656
 31
0.0
  0
LINE
  5
E2
100
AcDbEntity
  8
detail
 62
    16
  6
CONTINUOUS
370
    -2
100
AcDbLine
 10
19.25
 20
-55.24731656
 30
0.0
 11
19.25
 21
-55.26731656
 31
0.0
  0
LINE
  5
E3
100
AcDbEntity
  8
detail
 62
    16
  6
CONTINUOUS
370
    -2
100
AcDbLine
 10
19.275
 20
-55.24731656
 30
0.0
 11
19.275
 21
-55.26731656
 31
0.0
  0
LINE
  5
E4
100
AcDbEntity
  8
detail
 62
    16
  6
CONTINUOUS
370
    -2
100
AcDbLine
 10
19.3
 20
-55.24731656
 30
0.0
 11
19.3
 21
-55.26731656
 31
0.0
  0
LINE
  5
E5
100
AcDbEntity
  8
detail
 62
    16
  6
CONTINUOUS
370
    -2
100
AcDbLine
 10
19.325
 20
-55.24731656
 30
0.0
 11
19.325
 21
-55.26731656
 31
0.0
  0
LINE
  5
E6
100
AcDbEntity
  8
detail
 62
    16
  6
CONTINUOUS
370
    -2
100
AcDbLine
 10
19.35
 20
-55.24731656
 30
0.0
 11
19.35
 21
-55.26731656
 31
0.0
  0
LINE
  5
E7
100
AcDbEntity
  8
detail
 62
    16
  6
CONTINUOUS
370
    -2
100
AcDbLine
 10
19.375
 20
-55.24731656
 30
0.0
 11
19.375
 21
-55.26731656
 31
0.0
  0
LINE
  5
E8
100
AcDbEntity
  8
detail
 62
    16
  6
CONTINUOUS
370
    -2
100
AcDbLine
 10
19.4
 20
-55.24731656
 30
0.0
 11
19.4
 21
-55.26731656
 31
0.0
  0
LINE
  5
E9
100
AcDbEntity
  8
detail
 62
    16
  6
CONTINUOUS
370
    -2
100
AcDbLine
 10
19.425
 20
-55.24731656
 30
0.0
 11
19.425
 21
-55.26731656
 31
0.0
  0
ENDBLK
  5
EA
100
AcDbEntity
100
AcDbBlockEnd
  0
BLOCK
  5
EB
100
AcDbEntity
  8
detail
100
AcDbBlockBegin
  2
*X2
 70
     1
 10
0.0
 20
0.0
 30
0.0
  3
*X2
  1

  4
Cadwork hatch
  0
LINE
  5
EC
100
AcDbEntity
  8
detail
 62
    16
  6
CONTINUOUS
370
    -2
100
AcDbLine
 10
18.2549791
 20
-55.08
 30
0.0
 11
18.2279791
 21
-55.08
 31
0.0
  0
LINE
  5
ED
100
AcDbEntity
  8
detail
 62
    16
  6
CONTINUOUS
370
    -2
100
AcDbLine
 10
18.2549791
 20
-55.2
 30
0.0
 11
18.2279791
 21
-55.2
 31
0.0
  0
LINE
  5
EE
100
AcDbEntity
  8
detail
 62
    16
  6
CONTINUOUS
370
    -2
100
AcDbLine
 10
18.2549791
 20
-55.32
 30
0.0
 11
18.2279791
 21
-55.32
 31
0.0
  0
LINE
  5
EF
100
AcDbEntity
  8
detail
 62
    16
  6
CONTINUOUS
370
    -2
100
AcDbLine
 10
18.2549791
 20
-55.44
 30
0.0
 11
18.2279791
 21
-55.44
 31
0.0
  0
LINE
  5
F0
100
AcDbEntity
  8
detail
 62
    16
  6
CONTINUOUS
370
    -2
100
AcDbLine
 10
18.2549791
 20
-55.56
 30
0.0
 11
18.2279791
 21
-55.56
 31
0.0
  0
LINE
  5
F1
100
AcDbEntity
  8
detail
 62
    16
  6
CONTINUOUS
370
    -2
100
AcDbLine
 10
18.2549791
 20
-55.68
 30
0.0
 11
18.2279791
 21
-55.68
 31
0.0
  0
LINE
  5
F2
100
AcDbEntity
  8
detail
 62
    16
  6
CONTINUOUS
370
    -2
100
AcDbLine
 10
18.2549791
 20
-55.8
 30
0.0
 11
18.2279791
 21
-55.8
 31
0.0
  0
ENDBLK
  5
F3
100
AcDbEntity
100
AcDbBlockEnd
  0
BLOCK
  5
F4
100
AcDbEntity
  8
detail
100
AcDbBlockBegin
  2
*X3
 70
     1
 10
0.0
 20
0.0
 30
0.0
  3
*X3
  1

  4
Cadwork hatch
  0
LINE
  5
F5
100
AcDbEntity
  8
detail
 62
    16
  6
CONTINUOUS
370
    -2
100
AcDbLine
 10
18.2999791
 20
-54.99
 30
0.0
 11
18.2799791
 21
-54.99
 31
0.0
  0
LINE
  5
F6
100
AcDbEntity
  8
detail
 62
    16
  6
CONTINUOUS
370
    -2
100
AcDbLine
 10
18.2999791
 20
-55.02
 30
0.0
 11
18.2799791
 21
-55.02
 31
0.0
  0
LINE
  5
F7
100
AcDbEntity
  8
detail
 62
    16
  6
CONTINUOUS
370
    -2
100
AcDbLine
 10
18.2999791
 20
-55.05
 30
0.0
 11
18.2799791
 21
-55.05
 31
0.0
  0
LINE
  5
F8
100
AcDbEntity
  8
detail
 62
    16
  6
CONTINUOUS
370
    -2
100
AcDbLine
 10
18.2999791
 20
-55.08
 30
0.0
 11
18.2799791
 21
-55.08
 31
0.0
  0
LINE
  5
F9
100
AcDbEntity
  8
detail
 62
    16
  6
CONTINUOUS
370
    -2
100
AcDbLine
 10
18.2999791
 20
-55.11
 30
0.0
 11
18.2799791
 21
-55.11
 31
0.0
  0
LINE
  5
FA
100
AcDbEntity
  8
detail
 62
    16
  6
CONTINUOUS
370
    -2
100
AcDbLine
 10
18.2999791
 20
-55.14
 30
0.0
 11
18.2799791
 21
-55.14
 31
0.0
  0
LINE
  5
FB
100
AcDbEntity
  8
detail
 62
    16
  6
CONTINUOUS
370
    -2
100
AcDbLine
 10
18.2999791
 20
-55.17
 30
0.0
 11
18.2799791
 21
-55.17
 31
0.0
  0
LINE
  5
FC
100
AcDbEntity
  8
detail
 62
    16
  6
CONTINUOUS
370
    -2
100
AcDbLine
 10
18.2999791
 20
-55.2
 30
0.0
 11
18.2799791
 21
-55.2
 31
0.0
  0
LINE
  5
FD
100
AcDbEntity
  8
detail
 62
    16
  6
CONTINUOUS
370
    -2
100
AcDbLine
 10
18.2999791
 20
-55.23
 30
0.0
 11
18.2799791
 21
-55.23
 31
0.0
  0
LINE
  5
FE
100
AcDbEntity
  8
detail
 62
    16
  6
CONTINUOUS
370
    -2
100
AcDbLine
 10
18.2999791
 20
-55.26
 30
0.0
 11
18.2799791
 21
-55.26
 31
0.0
  0
LINE
  5
FF
100
AcDbEntity
  8
detail
 62
    16
  6
CONTINUOUS
370
    -2
100
AcDbLine
 10
18.2999791
 20
-55.29
 30
0.0
 11
18.2799791
 21
-55.29
 31
0.0
  0
LINE
  5
100
100
AcDbEntity
  8
detail
 62
    16
  6
CONTINUOUS
370
    -2
100
AcDbLine
 10
18.2999791
 20
-55.32
 30
0.0
 11
18.2799791
 21
-55.32
 31
0.0
  0
LINE
  5
101
100
AcDbEntity
  8
detail
 62
    16
  6
CONTINUOUS
370
    -2
100
AcDbLine
 10
18.2999791
 20
-55.35
 30
0.0
 11
18.2799791
 21
-55.35
 31
0.0
  0
LINE
  5
102
100
AcDbEntity
  8
detail
 62
    16
  6
CONTINUOUS
370
    -2
100
AcDbLine
 10
18.2999791
 20
-55.38
 30
0.0
 11
18.2799791
 21
-55.38
 31
0.0
  0
LINE
  5
103
100
AcDbEntity
  8
detail
 62
    16
  6
CONTINUOUS
370
    -2
100
AcDbLine
 10
18.2999791
 20
-55.41
 30
0.0
 11
18.2799791
 21
-55.41
 31
0.0
  0
LINE
  5
104
100
AcDbEntity
  8
detail
 62
    16
  6
CONTINUOUS
370
    -2
100
AcDbLine
 10
18.2999791
 20
-55.44
 30
0.0
 11
18.2799791
 21
-55.44
 31
0.0
  0
LINE
  5
105
100
AcDbEntity
  8
detail
 62
    16
  6
CONTINUOUS
370
    -2
100
AcDbLine
 10
18.2999791
 20
-55.47
 30
0.0
 11
18.2799791
 21
-55.47
 31
0.0
  0
LINE
  5
106
100
AcDbEntity
  8
detail
 62
    16
  6
CONTINUOUS
370
    -2
100
AcDbLine
 10
18.2999791
 20
-55.5
 30
0.0
 11
18.2799791
 21
-55.5
 31
0.0
  0
LINE
  5
107
100
AcDbEntity
  8
detail
 62
    16
  6
CONTINUOUS
370
    -2
100
AcDbLine
 10
18.2999791
 20
-55.53
 30
0.0
 11
18.2799791
 21
-55.53
 31
0.0
  0
LINE
  5
108
100
AcDbEntity
  8
detail
 62
    16
  6
CONTINUOUS
370
    -2
100
AcDbLine
 10
18.2999791
 20
-55.56
 30
0.0
 11
18.2799791
 21
-55.56
 31
0.0
  0
LINE
  5
109
100
AcDbEntity
  8
detail
 62
    16
  6
CONTINUOUS
370
    -2
100
AcDbLine
 10
18.2999791
 20
-55.59
 30
0.0
 11
18.2799791
 21
-55.59
 31
0.0
  0
LINE
  5
10A
100
AcDbEntity
  8
detail
 62
    16
  6
CONTINUOUS
370
    -2
100
AcDbLine
 10
18.2999791
 20
-55.62
 30
0.0
 11
18.2799791
 21
-55.62
 31
0.0
  0
LINE
  5
10B
100
AcDbEntity
  8
detail
 62
    16
  6
CONTINUOUS
370
    -2
100
AcDbLine
 10
18.2999791
 20
-55.65
 30
0.0
 11
18.2799791
 21
-55.65
 31
0.0
  0
LINE
  5
10C
100
AcDbEntity
  8
detail
 62
    16
  6
CONTINUOUS
370
    -2
100
AcDbLine
 10
18.2999791
 20
-55.68
 30
0.0
 11
18.2799791
 21
-55.68
 31
0.0
  0
LINE
  5
10D
100
AcDbEntity
  8
detail
 62
    16
  6
CONTINUOUS
370
    -2
100
AcDbLine
 10
18.2999791
 20
-55.71
 30
0.0
 11
18.2799791
 21
-55.71
 31
0.0
  0
LINE
  5
10E
100
AcDbEntity
  8
detail
 62
    16
  6
CONTINUOUS
370
    -2
100
AcDbLine
 10
18.2999791
 20
-55.74
 30
0.0
 11
18.2799791
 21
-55.74
 31
0.0
  0
LINE
  5
10F
100
AcDbEntity
  8
detail
 62
    16
  6
CONTINUOUS
370
    -2
100
AcDbLine
 10
18.2999791
 20
-55.77
 30
0.0
 11
18.2799791
 21
-55.77
 31
0.0
  0
LINE
  5
110
100
AcDbEntity
  8
detail
 62
    16
  6
CONTINUOUS
370
    -2
100
AcDbLine
 10
18.2999791
 20
-55.8
 30
0.0
 11
18.2799791
 21
-55.8
 31
0.0
  0
LINE
  5
111
100
AcDbEntity
  8
detail
 62
    16
  6
CONTINUOUS
370
    -2
100
AcDbLine
 10
18.2999791
 20
-55.83
 30
0.0
 11
18.2799791
 21
-55.83
 31
0.0
  0
ENDBLK
  5
112
100
AcDbEntity
100
AcDbBlockEnd
  0
BLOCK
  5
113
100
AcDbEntity
  8
detail
100
AcDbBlockBegin
  2
*X4
 70
     1
 10
0.0
 20
0.0
 30
0.0
  3
*X4
  1

  4
Cadwork hatch
  0
LINE
  5
114
100
AcDbEntity
  8
detail
 62
    16
  6
CONTINUOUS
370
    -2
100
AcDbLine
 10
18.29997902
 20
-55.5423167
 30
0.0
 11
18.47997911
 21
-55.60231653
 31
0.0
  0
LINE
  5
115
100
AcDbEntity
  8
detail
 62
    16
  6
CONTINUOUS
370
    -2
100
AcDbLine
 10
18.47997911
 20
-55.5423167
 30
0.0
 11
18.29997902
 21
-55.60231653
 31
0.0
  0
ENDBLK
  5
116
100
AcDbEntity
100
AcDbBlockEnd
  0
BLOCK
  5
117
100
AcDbEntity
  8
detail
100
AcDbBlockBegin
  2
*X5
 70
     1
 10
0.0
 20
0.0
 30
0.0
  3
*X5
  1

  4
Cadwork hatch
  0
LINE
  5
118
100
AcDbEntity
  8
detail
 62
    16
  6
CONTINUOUS
370
    -2
100
AcDbLine
 10
18.2999791
 20
-55.00622175
 30
0.0
 11
18.2799791
 21
-55.00622175
 31
0.0
  0
LINE
  5
119
100
AcDbEntity
  8
detail
 62
    16
  6
CONTINUOUS
370
    -2
100
AcDbLine
 10
18.2999791
 20
-55.03209486
 30
0.0
 11
18.2799791
 21
-55.03209486
 31
0.0
  0
LINE
  5
11A
100
AcDbEntity
  8
detail
 62
    16
  6
CONTINUOUS
370
    -2
100
AcDbLine
 10
18.2999791
 20
-55.05796796
 30
0.0
 11
18.2799791
 21
-55.05796796
 31
0.0
  0
LINE
  5
11B
100
AcDbEntity
  8
detail
 62
    16
  6
CONTINUOUS
370
    -2
100
AcDbLine
 10
18.2999791
 20
-55.08384107
 30
0.0
 11
18.2799791
 21
-55.08384107
 31
0.0
  0
LINE
  5
11C
100
AcDbEntity
  8
detail
 62
    16
  6
CONTINUOUS
370
    -2
100
AcDbLine
 10
18.2999791
 20
-55.10971417
 30
0.0
 11
18.2799791
 21
-55.10971417
 31
0.0
  0
LINE
  5
11D
100
AcDbEntity
  8
detail
 62
    16
  6
CONTINUOUS
370
    -2
100
AcDbLine
 10
18.2999791
 20
-55.13558728
 30
0.0
 11
18.2799791
 21
-55.13558728
 31
0.0
  0
LINE
  5
11E
100
AcDbEntity
  8
detail
 62
    16
  6
CONTINUOUS
370
    -2
100
AcDbLine
 10
18.2999791
 20
-55.16146038
 30
0.0
 11
18.2799791
 21
-55.16146038
 31
0.0
  0
LINE
  5
11F
100
AcDbEntity
  8
detail
 62
    16
  6
CONTINUOUS
370
    -2
100
AcDbLine
 10
18.2999791
 20
-55.18733349
 30
0.0
 11
18.2799791
 21
-55.18733349
 31
0.0
  0
LINE
  5
120
100
AcDbEntity
  8
detail
 62
    16
  6
CONTINUOUS
370
    -2
100
AcDbLine
 10
18.2999791
 20
-55.21320659
 30
0.0
 11
18.2799791
 21
-55.21320659
 31
0.0
  0
LINE
  5
121
100
AcDbEntity
  8
detail
 62
    16
  6
CONTINUOUS
370
    -2
100
AcDbLine
 10
18.2999791
 20
-55.2390797
 30
0.0
 11
18.2799791
 21
-55.2390797
 31
0.0
  0
LINE
  5
122
100
AcDbEntity
  8
detail
 62
    16
  6
CONTINUOUS
370
    -2
100
AcDbLine
 10
18.2999791
 20
-55.2649528
 30
0.0
 11
18.2799791
 21
-55.2649528
 31
0.0
  0
LINE
  5
123
100
AcDbEntity
  8
detail
 62
    16
  6
CONTINUOUS
370
    -2
100
AcDbLine
 10
18.2999791
 20
-55.29082591
 30
0.0
 11
18.2799791
 21
-55.29082591
 31
0.0
  0
LINE
  5
124
100
AcDbEntity
  8
detail
 62
    16
  6
CONTINUOUS
370
    -2
100
AcDbLine
 10
18.2999791
 20
-55.31669901
 30
0.0
 11
18.2799791
 21
-55.31669901
 31
0.0
  0
LINE
  5
125
100
AcDbEntity
  8
detail
 62
    16
  6
CONTINUOUS
370
    -2
100
AcDbLine
 10
18.2999791
 20
-55.34257212
 30
0.0
 11
18.2799791
 21
-55.34257212
 31
0.0
  0
LINE
  5
126
100
AcDbEntity
  8
detail
 62
    16
  6
CONTINUOUS
370
    -2
100
AcDbLine
 10
18.2999791
 20
-55.36844522
 30
0.0
 11
18.2799791
 21
-55.36844522
 31
0.0
  0
LINE
  5
127
100
AcDbEntity
  8
detail
 62
    16
  6
CONTINUOUS
370
    -2
100
AcDbLine
 10
18.2999791
 20
-55.39431833
 30
0.0
 11
18.2799791
 21
-55.39431833
 31
0.0
  0
LINE
  5
128
100
AcDbEntity
  8
detail
 62
    16
  6
CONTINUOUS
370
    -2
100
AcDbLine
 10
18.2999791
 20
-55.42019144
 30
0.0
 11
18.2799791
 21
-55.42019144
 31
0.0
  0
LINE
  5
129
100
AcDbEntity
  8
detail
 62
    16
  6
CONTINUOUS
370
    -2
100
AcDbLine
 10
18.2999791
 20
-55.44606454
 30
0.0
 11
18.2799791
 21
-55.44606454
 31
0.0
  0
LINE
  5
12A
100
AcDbEntity
  8
detail
 62
    16
  6
CONTINUOUS
370
    -2
100
AcDbLine
 10
18.2999791
 20
-55.47193765
 30
0.0
 11
18.2799791
 21
-55.47193765
 31
0.0
  0
LINE
  5
12B
100
AcDbEntity
  8
detail
 62
    16
  6
CONTINUOUS
370
    -2
100
AcDbLine
 10
18.2999791
 20
-55.49781075
 30
0.0
 11
18.2799791
 21
-55.49781075
 31
0.0
  0
LINE
  5
12C
100
AcDbEntity
  8
detail
 62
    16
  6
CONTINUOUS
370
    -2
100
AcDbLine
 10
18.2999791
 20
-55.52368386
 30
0.0
 11
18.2799791
 21
-55.52368386
 31
0.0
  0
LINE
  5
12D
100
AcDbEntity
  8
detail
 62
    16
  6
CONTINUOUS
370
    -2
100
AcDbLine
 10
18.2999791
 20
-55.54955696
 30
0.0
 11
18.2799791
 21
-55.54955696
 31
0.0
  0
LINE
  5
12E
100
AcDbEntity
  8
detail
 62
    16
  6
CONTINUOUS
370
    -2
100
AcDbLine
 10
18.2999791
 20
-55.57543007
 30
0.0
 11
18.2799791
 21
-55.57543007
 31
0.0
  0
LINE
  5
12F
100
AcDbEntity
  8
detail
 62
    16
  6
CONTINUOUS
370
    -2
100
AcDbLine
 10
18.2999791
 20
-55.60130317
 30
0.0
 11
18.2799791
 21
-55.60130317
 31
0.0
  0
LINE
  5
130
100
AcDbEntity
  8
detail
 62
    16
  6
CONTINUOUS
370
    -2
100
AcDbLine
 10
18.2999791
 20
-55.62717628
 30
0.0
 11
18.2799791
 21
-55.62717628
 31
0.0
  0
LINE
  5
131
100
AcDbEntity
  8
detail
 62
    16
  6
CONTINUOUS
370
    -2
100
AcDbLine
 10
18.2999791
 20
-55.65304938
 30
0.0
 11
18.2799791
 21
-55.65304938
 31
0.0
  0
LINE
  5
132
100
AcDbEntity
  8
detail
 62
    16
  6
CONTINUOUS
370
    -2
100
AcDbLine
 10
18.2999791
 20
-55.67892249
 30
0.0
 11
18.2799791
 21
-55.67892249
 31
0.0
  0
LINE
  5
133
100
AcDbEntity
  8
detail
 62
    16
  6
CONTINUOUS
370
    -2
100
AcDbLine
 10
18.2999791
 20
-55.70479559
 30
0.0
 11
18.2799791
 21
-55.70479559
 31
0.0
  0
LINE
  5
134
100
AcDbEntity
  8
detail
 62
    16
  6
CONTINUOUS
370
    -2
100
AcDbLine
 10
18.2999791
 20
-55.7306687
 30
0.0
 11
18.2799791
 21
-55.7306687
 31
0.0
  0
LINE
  5
135
100
AcDbEntity
  8
detail
 62
    16
  6
CONTINUOUS
370
    -2
100
AcDbLine
 10
18.2999791
 20
-55.7565418
 30
0.0
 11
18.2799791
 21
-55.7565418
 31
0.0
  0
LINE
  5
136
100
AcDbEntity
  8
detail
 62
    16
  6
CONTINUOUS
370
    -2
100
AcDbLine
 10
18.2999791
 20
-55.78241491
 30
0.0
 11
18.2799791
 21
-55.78241491
 31
0.0
  0
LINE
  5
137
100
AcDbEntity
  8
detail
 62
    16
  6
CONTINUOUS
370
    -2
100
AcDbLine
 10
18.2999791
 20
-55.80828801
 30
0.0
 11
18.2799791
 21
-55.80828801
 31
0.0
  0
LINE
  5
138
100
AcDbEntity
  8
detail
 62
    16
  6
CONTINUOUS
370
    -2
100
AcDbLine
 10
18.2999791
 20
-55.83416112
 30
0.0
 11
18.2799791
 21
-55.83416112
 31
0.0
  0
ENDBLK
  5
139
100
AcDbEntity
100
AcDbBlockEnd
  0
BLOCK
  5
13A
100
AcDbEntity
  8
detail
100
AcDbBlockBegin
  2
*X6
 70
     1
 10
0.0
 20
0.0
 30
0.0
  3
*X6
  1

  4
Cadwork hatch
  0
LINE
  5
13B
100
AcDbEntity
  8
detail
 62
    16
  6
CONTINUOUS
370
    -2
100
AcDbLine
 10
18.5489791
 20
-55.91852311
 30
0.0
 11
18.5439791
 21
-55.91852311
 31
0.0
  0
LINE
  5
13C
100
AcDbEntity
  8
detail
 62
    16
  6
CONTINUOUS
370
    -2
100
AcDbLine
 10
18.5489791
 20
-55.94396375
 30
0.0
 11
18.5439791
 21
-55.94396375
 31
0.0
  0
LINE
  5
13D
100
AcDbEntity
  8
detail
 62
    16
  6
CONTINUOUS
370
    -2
100
AcDbLine
 10
18.5489791
 20
-55.96940439
 30
0.0
 11
18.5439791
 21
-55.96940439
 31
0.0
  0
LINE
  5
13E
100
AcDbEntity
  8
detail
 62
    16
  6
CONTINUOUS
370
    -2
100
AcDbLine
 10
18.5489791
 20
-55.99484503
 30
0.0
 11
18.5439791
 21
-55.99484503
 31
0.0
  0
LINE
  5
13F
100
AcDbEntity
  8
detail
 62
    16
  6
CONTINUOUS
370
    -2
100
AcDbLine
 10
18.5489791
 20
-56.02028567
 30
0.0
 11
18.5439791
 21
-56.02028567
 31
0.0
  0
LINE
  5
140
100
AcDbEntity
  8
detail
 62
    16
  6
CONTINUOUS
370
    -2
100
AcDbLine
 10
18.5489791
 20
-56.04572631
 30
0.0
 11
18.5439791
 21
-56.04572631
 31
0.0
  0
LINE
  5
141
100
AcDbEntity
  8
detail
 62
    16
  6
CONTINUOUS
370
    -2
100
AcDbLine
 10
18.5489791
 20
-56.07116694
 30
0.0
 11
18.5439791
 21
-56.07116694
 31
0.0
  0
LINE
  5
142
100
AcDbEntity
  8
detail
 62
    16
  6
CONTINUOUS
370
    -2
100
AcDbLine
 10
18.5489791
 20
-56.09660758
 30
0.0
 11
18.5439791
 21
-56.09660758
 31
0.0
  0
LINE
  5
143
100
AcDbEntity
  8
detail
 62
    16
  6
CONTINUOUS
370
    -2
100
AcDbLine
 10
18.5489791
 20
-56.12204822
 30
0.0
 11
18.5439791
 21
-56.12204822
 31
0.0
  0
LINE
  5
144
100
AcDbEntity
  8
detail
 62
    16
  6
CONTINUOUS
370
    -2
100
AcDbLine
 10
18.5489791
 20
-56.14748886
 30
0.0
 11
18.5439791
 21
-56.14748886
 31
0.0
  0
LINE
  5
145
100
AcDbEntity
  8
detail
 62
    16
  6
CONTINUOUS
370
    -2
100
AcDbLine
 10
18.5489791
 20
-56.1729295
 30
0.0
 11
18.5439791
 21
-56.1729295
 31
0.0
  0
LINE
  5
146
100
AcDbEntity
  8
detail
 62
    16
  6
CONTINUOUS
370
    -2
100
AcDbLine
 10
18.5489791
 20
-56.19837014
 30
0.0
 11
18.5439791
 21
-56.19837014
 31
0.0
  0
LINE
  5
147
100
AcDbEntity
  8
detail
 62
    16
  6
CONTINUOUS
370
    -2
100
AcDbLine
 10
18.5489791
 20
-56.22381077
 30
0.0
 11
18.5439791
 21
-56.22381077
 31
0.0
  0
LINE
  5
148
100
AcDbEntity
  8
detail
 62
    16
  6
CONTINUOUS
370
    -2
100
AcDbLine
 10
18.5489791
 20
-56.24925141
 30
0.0
 11
18.5439791
 21
-56.24925141
 31
0.0
  0
LINE
  5
149
100
AcDbEntity
  8
detail
 62
    16
  6
CONTINUOUS
370
    -2
100
AcDbLine
 10
18.5489791
 20
-56.27469205
 30
0.0
 11
18.5439791
 21
-56.27469205
 31
0.0
  0
LINE
  5
14A
100
AcDbEntity
  8
detail
 62
    16
  6
CONTINUOUS
370
    -2
100
AcDbLine
 10
18.5489791
 20
-56.30013269
 30
0.0
 11
18.5439791
 21
-56.30013269
 31
0.0
  0
LINE
  5
14B
100
AcDbEntity
  8
detail
 62
    16
  6
CONTINUOUS
370
    -2
100
AcDbLine
 10
18.5489791
 20
-56.32557333
 30
0.0
 11
18.5439791
 21
-56.32557333
 31
0.0
  0
LINE
  5
14C
100
AcDbEntity
  8
detail
 62
    16
  6
CONTINUOUS
370
    -2
100
AcDbLine
 10
18.5489791
 20
-56.35101397
 30
0.0
 11
18.5439791
 21
-56.35101397
 31
0.0
  0
LINE
  5
14D
100
AcDbEntity
  8
detail
 62
    16
  6
CONTINUOUS
370
    -2
100
AcDbLine
 10
18.5489791
 20
-56.3764546
 30
0.0
 11
18.5439791
 21
-56.3764546
 31
0.0
  0
LINE
  5
14E
100
AcDbEntity
  8
detail
 62
    16
  6
CONTINUOUS
370
    -2
100
AcDbLine
 10
18.5489791
 20
-56.40189524
 30
0.0
 11
18.5439791
 21
-56.40189524
 31
0.0
  0
ENDBLK
  5
14F
100
AcDbEntity
100
AcDbBlockEnd
  0
BLOCK
  5
150
100
AcDbEntity
  8
detail
100
AcDbBlockBegin
  2
*X7
 70
     1
 10
0.0
 20
0.0
 30
0.0
  3
*X7
  1

  4
Cadwork hatch
  0
LINE
  5
151
100
AcDbEntity
  8
detail
 62
    16
  6
CONTINUOUS
370
    -2
100
AcDbLine
 10
18.53352837
 20
-55.91852311
 30
0.0
 11
18.52852837
 21
-55.91852311
 31
0.0
  0
LINE
  5
152
100
AcDbEntity
  8
detail
 62
    16
  6
CONTINUOUS
370
    -2
100
AcDbLine
 10
18.53352837
 20
-55.94396375
 30
0.0
 11
18.52852837
 21
-55.94396375
 31
0.0
  0
LINE
  5
153
100
AcDbEntity
  8
detail
 62
    16
  6
CONTINUOUS
370
    -2
100
AcDbLine
 10
18.53352837
 20
-55.96940439
 30
0.0
 11
18.52852837
 21
-55.96940439
 31
0.0
  0
LINE
  5
154
100
AcDbEntity
  8
detail
 62
    16
  6
CONTINUOUS
370
    -2
100
AcDbLine
 10
18.53352837
 20
-55.99484503
 30
0.0
 11
18.52852837
 21
-55.99484503
 31
0.0
  0
LINE
  5
155
100
AcDbEntity
  8
detail
 62
    16
  6
CONTINUOUS
370
    -2
100
AcDbLine
 10
18.53352837
 20
-56.02028567
 30
0.0
 11
18.52852837
 21
-56.02028567
 31
0.0
  0
LINE
  5
156
100
AcDbEntity
  8
detail
 62
    16
  6
CONTINUOUS
370
    -2
100
AcDbLine
 10
18.53352837
 20
-56.04572631
 30
0.0
 11
18.52852837
 21
-56.04572631
 31
0.0
  0
LINE
  5
157
100
AcDbEntity
  8
detail
 62
    16
  6
CONTINUOUS
370
    -2
100
AcDbLine
 10
18.53352837
 20
-56.07116694
 30
0.0
 11
18.52852837
 21
-56.07116694
 31
0.0
  0
LINE
  5
158
100
AcDbEntity
  8
detail
 62
    16
  6
CONTINUOUS
370
    -2
100
AcDbLine
 10
18.53352837
 20
-56.09660758
 30
0.0
 11
18.52852837
 21
-56.09660758
 31
0.0
  0
LINE
  5
159
100
AcDbEntity
  8
detail
 62
    16
  6
CONTINUOUS
370
    -2
100
AcDbLine
 10
18.53352837
 20
-56.12204822
 30
0.0
 11
18.52852837
 21
-56.12204822
 31
0.0
  0
LINE
  5
15A
100
AcDbEntity
  8
detail
 62
    16
  6
CONTINUOUS
370
    -2
100
AcDbLine
 10
18.53352837
 20
-56.14748886
 30
0.0
 11
18.52852837
 21
-56.14748886
 31
0.0
  0
LINE
  5
15B
100
AcDbEntity
  8
detail
 62
    16
  6
CONTINUOUS
370
    -2
100
AcDbLine
 10
18.53352837
 20
-56.1729295
 30
0.0
 11
18.52852837
 21
-56.1729295
 31
0.0
  0
LINE
  5
15C
100
AcDbEntity
  8
detail
 62
    16
  6
CONTINUOUS
370
    -2
100
AcDbLine
 10
18.53352837
 20
-56.19837014
 30
0.0
 11
18.52852837
 21
-56.19837014
 31
0.0
  0
LINE
  5
15D
100
AcDbEntity
  8
detail
 62
    16
  6
CONTINUOUS
370
    -2
100
AcDbLine
 10
18.53352837
 20
-56.22381077
 30
0.0
 11
18.52852837
 21
-56.22381077
 31
0.0
  0
LINE
  5
15E
100
AcDbEntity
  8
detail
 62
    16
  6
CONTINUOUS
370
    -2
100
AcDbLine
 10
18.53352837
 20
-56.24925141
 30
0.0
 11
18.52852837
 21
-56.24925141
 31
0.0
  0
LINE
  5
15F
100
AcDbEntity
  8
detail
 62
    16
  6
CONTINUOUS
370
    -2
100
AcDbLine
 10
18.53352837
 20
-56.27469205
 30
0.0
 11
18.52852837
 21
-56.27469205
 31
0.0
  0
LINE
  5
160
100
AcDbEntity
  8
detail
 62
    16
  6
CONTINUOUS
370
    -2
100
AcDbLine
 10
18.53352837
 20
-56.30013269
 30
0.0
 11
18.52852837
 21
-56.30013269
 31
0.0
  0
LINE
  5
161
100
AcDbEntity
  8
detail
 62
    16
  6
CONTINUOUS
370
    -2
100
AcDbLine
 10
18.53352837
 20
-56.32557333
 30
0.0
 11
18.52852837
 21
-56.32557333
 31
0.0
  0
LINE
  5
162
100
AcDbEntity
  8
detail
 62
    16
  6
CONTINUOUS
370
    -2
100
AcDbLine
 10
18.53352837
 20
-56.35101397
 30
0.0
 11
18.52852837
 21
-56.35101397
 31
0.0
  0
LINE
  5
163
100
AcDbEntity
  8
detail
 62
    16
  6
CONTINUOUS
370
    -2
100
AcDbLine
 10
18.53352837
 20
-56.3764546
 30
0.0
 11
18.52852837
 21
-56.3764546
 31
0.0
  0
LINE
  5
164
100
AcDbEntity
  8
detail
 62
    16
  6
CONTINUOUS
370
    -2
100
AcDbLine
 10
18.53352837
 20
-56.40189524
 30
0.0
 11
18.52852837
 21
-56.40189524
 31
0.0
  0
ENDBLK
  5
165
100
AcDbEntity
100
AcDbBlockEnd
  0
BLOCK
  5
166
100
AcDbEntity
  8
detail
100
AcDbBlockBegin
  2
*X8
 70
     1
 10
0.0
 20
0.0
 30
0.0
  3
*X8
  1

  4
Cadwork hatch
  0
LINE
  5
167
100
AcDbEntity
  8
detail
 62
    16
  6
CONTINUOUS
370
    -2
100
AcDbLine
 10
18.51807763
 20
-55.91852311
 30
0.0
 11
18.51307763
 21
-55.91852311
 31
0.0
  0
LINE
  5
168
100
AcDbEntity
  8
detail
 62
    16
  6
CONTINUOUS
370
    -2
100
AcDbLine
 10
18.51807763
 20
-55.94396375
 30
0.0
 11
18.51307763
 21
-55.94396375
 31
0.0
  0
LINE
  5
169
100
AcDbEntity
  8
detail
 62
    16
  6
CONTINUOUS
370
    -2
100
AcDbLine
 10
18.51807763
 20
-55.96940439
 30
0.0
 11
18.51307763
 21
-55.96940439
 31
0.0
  0
LINE
  5
16A
100
AcDbEntity
  8
detail
 62
    16
  6
CONTINUOUS
370
    -2
100
AcDbLine
 10
18.51807763
 20
-55.99484503
 30
0.0
 11
18.51307763
 21
-55.99484503
 31
0.0
  0
LINE
  5
16B
100
AcDbEntity
  8
detail
 62
    16
  6
CONTINUOUS
370
    -2
100
AcDbLine
 10
18.51807763
 20
-56.02028567
 30
0.0
 11
18.51307763
 21
-56.02028567
 31
0.0
  0
LINE
  5
16C
100
AcDbEntity
  8
detail
 62
    16
  6
CONTINUOUS
370
    -2
100
AcDbLine
 10
18.51807763
 20
-56.04572631
 30
0.0
 11
18.51307763
 21
-56.04572631
 31
0.0
  0
LINE
  5
16D
100
AcDbEntity
  8
detail
 62
    16
  6
CONTINUOUS
370
    -2
100
AcDbLine
 10
18.51807763
 20
-56.07116694
 30
0.0
 11
18.51307763
 21
-56.07116694
 31
0.0
  0
LINE
  5
16E
100
AcDbEntity
  8
detail
 62
    16
  6
CONTINUOUS
370
    -2
100
AcDbLine
 10
18.51807763
 20
-56.09660758
 30
0.0
 11
18.51307763
 21
-56.09660758
 31
0.0
  0
LINE
  5
16F
100
AcDbEntity
  8
detail
 62
    16
  6
CONTINUOUS
370
    -2
100
AcDbLine
 10
18.51807763
 20
-56.12204822
 30
0.0
 11
18.51307763
 21
-56.12204822
 31
0.0
  0
LINE
  5
170
100
AcDbEntity
  8
detail
 62
    16
  6
CONTINUOUS
370
    -2
100
AcDbLine
 10
18.51807763
 20
-56.14748886
 30
0.0
 11
18.51307763
 21
-56.14748886
 31
0.0
  0
LINE
  5
171
100
AcDbEntity
  8
detail
 62
    16
  6
CONTINUOUS
370
    -2
100
AcDbLine
 10
18.51807763
 20
-56.1729295
 30
0.0
 11
18.51307763
 21
-56.1729295
 31
0.0
  0
LINE
  5
172
100
AcDbEntity
  8
detail
 62
    16
  6
CONTINUOUS
370
    -2
100
AcDbLine
 10
18.51807763
 20
-56.19837014
 30
0.0
 11
18.51307763
 21
-56.19837014
 31
0.0
  0
LINE
  5
173
100
AcDbEntity
  8
detail
 62
    16
  6
CONTINUOUS
370
    -2
100
AcDbLine
 10
18.51807763
 20
-56.22381077
 30
0.0
 11
18.51307763
 21
-56.22381077
 31
0.0
  0
LINE
  5
174
100
AcDbEntity
  8
detail
 62
    16
  6
CONTINUOUS
370
    -2
100
AcDbLine
 10
18.51807763
 20
-56.24925141
 30
0.0
 11
18.51307763
 21
-56.24925141
 31
0.0
  0
LINE
  5
175
100
AcDbEntity
  8
detail
 62
    16
  6
CONTINUOUS
370
    -2
100
AcDbLine
 10
18.51807763
 20
-56.27469205
 30
0.0
 11
18.51307763
 21
-56.27469205
 31
0.0
  0
LINE
  5
176
100
AcDbEntity
  8
detail
 62
    16
  6
CONTINUOUS
370
    -2
100
AcDbLine
 10
18.51807763
 20
-56.30013269
 30
0.0
 11
18.51307763
 21
-56.30013269
 31
0.0
  0
LINE
  5
177
100
AcDbEntity
  8
detail
 62
    16
  6
CONTINUOUS
370
    -2
100
AcDbLine
 10
18.51807763
 20
-56.32557333
 30
0.0
 11
18.51307763
 21
-56.32557333
 31
0.0
  0
LINE
  5
178
100
AcDbEntity
  8
detail
 62
    16
  6
CONTINUOUS
370
    -2
100
AcDbLine
 10
18.51807763
 20
-56.35101397
 30
0.0
 11
18.51307763
 21
-56.35101397
 31
0.0
  0
LINE
  5
179
100
AcDbEntity
  8
detail
 62
    16
  6
CONTINUOUS
370
    -2
100
AcDbLine
 10
18.51807763
 20
-56.3764546
 30
0.0
 11
18.51307763
 21
-56.3764546
 31
0.0
  0
LINE
  5
17A
100
AcDbEntity
  8
detail
 62
    16
  6
CONTINUOUS
370
    -2
100
AcDbLine
 10
18.51807763
 20
-56.40189524
 30
0.0
 11
18.51307763
 21
-56.40189524
 31
0.0
  0
ENDBLK
  5
17B
100
AcDbEntity
100
AcDbBlockEnd
  0
BLOCK
  5
17C
100
AcDbEntity
  8
detail
100
AcDbBlockBegin
  2
*X9
 70
     1
 10
0.0
 20
0.0
 30
0.0
  3
*X9
  1

  4
Cadwork hatch
  0
LINE
  5
17D
100
AcDbEntity
  8
detail
 62
    16
  6
CONTINUOUS
370
    -2
100
AcDbLine
 10
18.4899791
 20
-54.99344335
 30
0.0
 11
18.4799791
 21
-54.99344335
 31
0.0
  0
LINE
  5
17E
100
AcDbEntity
  8
detail
 62
    16
  6
CONTINUOUS
370
    -2
100
AcDbLine
 10
18.4899791
 20
-55.0082544
 30
0.0
 11
18.4799791
 21
-55.0082544
 31
0.0
  0
LINE
  5
17F
100
AcDbEntity
  8
detail
 62
    16
  6
CONTINUOUS
370
    -2
100
AcDbLine
 10
18.4899791
 20
-55.02306545
 30
0.0
 11
18.4799791
 21
-55.02306545
 31
0.0
  0
LINE
  5
180
100
AcDbEntity
  8
detail
 62
    16
  6
CONTINUOUS
370
    -2
100
AcDbLine
 10
18.4899791
 20
-55.03787651
 30
0.0
 11
18.4799791
 21
-55.03787651
 31
0.0
  0
LINE
  5
181
100
AcDbEntity
  8
detail
 62
    16
  6
CONTINUOUS
370
    -2
100
AcDbLine
 10
18.4899791
 20
-55.05268756
 30
0.0
 11
18.4799791
 21
-55.05268756
 31
0.0
  0
LINE
  5
182
100
AcDbEntity
  8
detail
 62
    16
  6
CONTINUOUS
370
    -2
100
AcDbLine
 10
18.4899791
 20
-55.06749862
 30
0.0
 11
18.4799791
 21
-55.06749862
 31
0.0
  0
LINE
  5
183
100
AcDbEntity
  8
detail
 62
    16
  6
CONTINUOUS
370
    -2
100
AcDbLine
 10
18.4899791
 20
-55.08230967
 30
0.0
 11
18.4799791
 21
-55.08230967
 31
0.0
  0
LINE
  5
184
100
AcDbEntity
  8
detail
 62
    16
  6
CONTINUOUS
370
    -2
100
AcDbLine
 10
18.4899791
 20
-55.09712072
 30
0.0
 11
18.4799791
 21
-55.09712072
 31
0.0
  0
LINE
  5
185
100
AcDbEntity
  8
detail
 62
    16
  6
CONTINUOUS
370
    -2
100
AcDbLine
 10
18.4899791
 20
-55.11193178
 30
0.0
 11
18.4799791
 21
-55.11193178
 31
0.0
  0
LINE
  5
186
100
AcDbEntity
  8
detail
 62
    16
  6
CONTINUOUS
370
    -2
100
AcDbLine
 10
18.4899791
 20
-55.12674283
 30
0.0
 11
18.4799791
 21
-55.12674283
 31
0.0
  0
LINE
  5
187
100
AcDbEntity
  8
detail
 62
    16
  6
CONTINUOUS
370
    -2
100
AcDbLine
 10
18.4899791
 20
-55.14155389
 30
0.0
 11
18.4799791
 21
-55.14155389
 31
0.0
  0
LINE
  5
188
100
AcDbEntity
  8
detail
 62
    16
  6
CONTINUOUS
370
    -2
100
AcDbLine
 10
18.4899791
 20
-55.15636494
 30
0.0
 11
18.4799791
 21
-55.15636494
 31
0.0
  0
LINE
  5
189
100
AcDbEntity
  8
detail
 62
    16
  6
CONTINUOUS
370
    -2
100
AcDbLine
 10
18.4899791
 20
-55.17117599
 30
0.0
 11
18.4799791
 21
-55.17117599
 31
0.0
  0
LINE
  5
18A
100
AcDbEntity
  8
detail
 62
    16
  6
CONTINUOUS
370
    -2
100
AcDbLine
 10
18.4899791
 20
-55.18598705
 30
0.0
 11
18.4799791
 21
-55.18598705
 31
0.0
  0
LINE
  5
18B
100
AcDbEntity
  8
detail
 62
    16
  6
CONTINUOUS
370
    -2
100
AcDbLine
 10
18.4899791
 20
-55.2007981
 30
0.0
 11
18.4799791
 21
-55.2007981
 31
0.0
  0
LINE
  5
18C
100
AcDbEntity
  8
detail
 62
    16
  6
CONTINUOUS
370
    -2
100
AcDbLine
 10
18.4899791
 20
-55.21560916
 30
0.0
 11
18.4799791
 21
-55.21560916
 31
0.0
  0
LINE
  5
18D
100
AcDbEntity
  8
detail
 62
    16
  6
CONTINUOUS
370
    -2
100
AcDbLine
 10
18.4899791
 20
-55.23042021
 30
0.0
 11
18.4799791
 21
-55.23042021
 31
0.0
  0
LINE
  5
18E
100
AcDbEntity
  8
detail
 62
    16
  6
CONTINUOUS
370
    -2
100
AcDbLine
 10
18.4899791
 20
-55.24523126
 30
0.0
 11
18.4799791
 21
-55.24523126
 31
0.0
  0
LINE
  5
18F
100
AcDbEntity
  8
detail
 62
    16
  6
CONTINUOUS
370
    -2
100
AcDbLine
 10
18.4899791
 20
-55.26004232
 30
0.0
 11
18.4799791
 21
-55.26004232
 31
0.0
  0
LINE
  5
190
100
AcDbEntity
  8
detail
 62
    16
  6
CONTINUOUS
370
    -2
100
AcDbLine
 10
18.4899791
 20
-55.27485337
 30
0.0
 11
18.4799791
 21
-55.27485337
 31
0.0
  0
LINE
  5
191
100
AcDbEntity
  8
detail
 62
    16
  6
CONTINUOUS
370
    -2
100
AcDbLine
 10
18.4899791
 20
-55.28966443
 30
0.0
 11
18.4799791
 21
-55.28966443
 31
0.0
  0
LINE
  5
192
100
AcDbEntity
  8
detail
 62
    16
  6
CONTINUOUS
370
    -2
100
AcDbLine
 10
18.4899791
 20
-55.30447548
 30
0.0
 11
18.4799791
 21
-55.30447548
 31
0.0
  0
LINE
  5
193
100
AcDbEntity
  8
detail
 62
    16
  6
CONTINUOUS
370
    -2
100
AcDbLine
 10
18.4899791
 20
-55.31928653
 30
0.0
 11
18.4799791
 21
-55.31928653
 31
0.0
  0
LINE
  5
194
100
AcDbEntity
  8
detail
 62
    16
  6
CONTINUOUS
370
    -2
100
AcDbLine
 10
18.4899791
 20
-55.33409759
 30
0.0
 11
18.4799791
 21
-55.33409759
 31
0.0
  0
LINE
  5
195
100
AcDbEntity
  8
detail
 62
    16
  6
CONTINUOUS
370
    -2
100
AcDbLine
 10
18.4899791
 20
-55.34890864
 30
0.0
 11
18.4799791
 21
-55.34890864
 31
0.0
  0
LINE
  5
196
100
AcDbEntity
  8
detail
 62
    16
  6
CONTINUOUS
370
    -2
100
AcDbLine
 10
18.4899791
 20
-55.36371969
 30
0.0
 11
18.4799791
 21
-55.36371969
 31
0.0
  0
LINE
  5
197
100
AcDbEntity
  8
detail
 62
    16
  6
CONTINUOUS
370
    -2
100
AcDbLine
 10
18.4899791
 20
-55.37853075
 30
0.0
 11
18.4799791
 21
-55.37853075
 31
0.0
  0
LINE
  5
198
100
AcDbEntity
  8
detail
 62
    16
  6
CONTINUOUS
370
    -2
100
AcDbLine
 10
18.4899791
 20
-55.3933418
 30
0.0
 11
18.4799791
 21
-55.3933418
 31
0.0
  0
LINE
  5
199
100
AcDbEntity
  8
detail
 62
    16
  6
CONTINUOUS
370
    -2
100
AcDbLine
 10
18.4899791
 20
-55.40815286
 30
0.0
 11
18.4799791
 21
-55.40815286
 31
0.0
  0
LINE
  5
19A
100
AcDbEntity
  8
detail
 62
    16
  6
CONTINUOUS
370
    -2
100
AcDbLine
 10
18.4899791
 20
-55.42296391
 30
0.0
 11
18.4799791
 21
-55.42296391
 31
0.0
  0
LINE
  5
19B
100
AcDbEntity
  8
detail
 62
    16
  6
CONTINUOUS
370
    -2
100
AcDbLine
 10
18.4899791
 20
-55.43777496
 30
0.0
 11
18.4799791
 21
-55.43777496
 31
0.0
  0
LINE
  5
19C
100
AcDbEntity
  8
detail
 62
    16
  6
CONTINUOUS
370
    -2
100
AcDbLine
 10
18.4899791
 20
-55.45258602
 30
0.0
 11
18.4799791
 21
-55.45258602
 31
0.0
  0
LINE
  5
19D
100
AcDbEntity
  8
detail
 62
    16
  6
CONTINUOUS
370
    -2
100
AcDbLine
 10
18.4899791
 20
-55.46739707
 30
0.0
 11
18.4799791
 21
-55.46739707
 31
0.0
  0
ENDBLK
  5
19E
100
AcDbEntity
100
AcDbBlockEnd
  0
BLOCK
  5
19F
100
AcDbEntity
  8
detail
100
AcDbBlockBegin
  2
*X10
 70
     1
 10
0.0
 20
0.0
 30
0.0
  3
*X10
  1

  4
Cadwork hatch
  0
LINE
  5
1A0
100
AcDbEntity
  8
detail
 62
    16
  6
CONTINUOUS
370
    -2
100
AcDbLine
 10
18.49919972
 20
-55.26731656
 30
0.0
 11
18.4899791
 21
-55.27264008
 31
0.0
  0
LINE
  5
1A1
100
AcDbEntity
  8
detail
 62
    16
  6
CONTINUOUS
370
    -2
100
AcDbLine
 10
18.52419972
 20
-55.26731656
 30
0.0
 11
18.4899791
 21
-55.28707384
 31
0.0
  0
LINE
  5
1A2
100
AcDbEntity
  8
detail
 62
    16
  6
CONTINUOUS
370
    -2
100
AcDbLine
 10
18.54919972
 20
-55.26731656
 30
0.0
 11
18.4972382
 21
-55.29731656
 31
0.0
  0
LINE
  5
1A3
100
AcDbEntity
  8
detail
 62
    16
  6
CONTINUOUS
370
    -2
100
AcDbLine
 10
18.57419972
 20
-55.26731656
 30
0.0
 11
18.5222382
 21
-55.29731656
 31
0.0
  0
LINE
  5
1A4
100
AcDbEntity
  8
detail
 62
    16
  6
CONTINUOUS
370
    -2
100
AcDbLine
 10
18.59919972
 20
-55.26731656
 30
0.0
 11
18.5472382
 21
-55.29731656
 31
0.0
  0
LINE
  5
1A5
100
AcDbEntity
  8
detail
 62
    16
  6
CONTINUOUS
370
    -2
100
AcDbLine
 10
18.62419972
 20
-55.26731656
 30
0.0
 11
18.5722382
 21
-55.29731656
 31
0.0
  0
LINE
  5
1A6
100
AcDbEntity
  8
detail
 62
    16
  6
CONTINUOUS
370
    -2
100
AcDbLine
 10
18.64919972
 20
-55.26731656
 30
0.0
 11
18.5972382
 21
-55.29731656
 31
0.0
  0
LINE
  5
1A7
100
AcDbEntity
  8
detail
 62
    16
  6
CONTINUOUS
370
    -2
100
AcDbLine
 10
18.67419972
 20
-55.26731656
 30
0.0
 11
18.6222382
 21
-55.29731656
 31
0.0
  0
LINE
  5
1A8
100
AcDbEntity
  8
detail
 62
    16
  6
CONTINUOUS
370
    -2
100
AcDbLine
 10
18.69919972
 20
-55.26731656
 30
0.0
 11
18.6472382
 21
-55.29731656
 31
0.0
  0
LINE
  5
1A9
100
AcDbEntity
  8
detail
 62
    16
  6
CONTINUOUS
370
    -2
100
AcDbLine
 10
18.72419972
 20
-55.26731656
 30
0.0
 11
18.6722382
 21
-55.29731656
 31
0.0
  0
LINE
  5
1AA
100
AcDbEntity
  8
detail
 62
    16
  6
CONTINUOUS
370
    -2
100
AcDbLine
 10
18.74919972
 20
-55.26731656
 30
0.0
 11
18.6972382
 21
-55.29731656
 31
0.0
  0
LINE
  5
1AB
100
AcDbEntity
  8
detail
 62
    16
  6
CONTINUOUS
370
    -2
100
AcDbLine
 10
18.77419972
 20
-55.26731656
 30
0.0
 11
18.7222382
 21
-55.29731656
 31
0.0
  0
LINE
  5
1AC
100
AcDbEntity
  8
detail
 62
    16
  6
CONTINUOUS
370
    -2
100
AcDbLine
 10
18.79919972
 20
-55.26731656
 30
0.0
 11
18.7472382
 21
-55.29731656
 31
0.0
  0
LINE
  5
1AD
100
AcDbEntity
  8
detail
 62
    16
  6
CONTINUOUS
370
    -2
100
AcDbLine
 10
18.82419972
 20
-55.26731656
 30
0.0
 11
18.7722382
 21
-55.29731656
 31
0.0
  0
LINE
  5
1AE
100
AcDbEntity
  8
detail
 62
    16
  6
CONTINUOUS
370
    -2
100
AcDbLine
 10
18.84919972
 20
-55.26731656
 30
0.0
 11
18.7972382
 21
-55.29731656
 31
0.0
  0
LINE
  5
1AF
100
AcDbEntity
  8
detail
 62
    16
  6
CONTINUOUS
370
    -2
100
AcDbLine
 10
18.87419972
 20
-55.26731656
 30
0.0
 11
18.8222382
 21
-55.29731656
 31
0.0
  0
LINE
  5
1B0
100
AcDbEntity
  8
detail
 62
    16
  6
CONTINUOUS
370
    -2
100
AcDbLine
 10
18.89919972
 20
-55.26731656
 30
0.0
 11
18.8472382
 21
-55.29731656
 31
0.0
  0
LINE
  5
1B1
100
AcDbEntity
  8
detail
 62
    16
  6
CONTINUOUS
370
    -2
100
AcDbLine
 10
18.92419972
 20
-55.26731656
 30
0.0
 11
18.8722382
 21
-55.29731656
 31
0.0
  0
LINE
  5
1B2
100
AcDbEntity
  8
detail
 62
    16
  6
CONTINUOUS
370
    -2
100
AcDbLine
 10
18.94919972
 20
-55.26731656
 30
0.0
 11
18.8972382
 21
-55.29731656
 31
0.0
  0
LINE
  5
1B3
100
AcDbEntity
  8
detail
 62
    16
  6
CONTINUOUS
370
    -2
100
AcDbLine
 10
18.97419972
 20
-55.26731656
 30
0.0
 11
18.9222382
 21
-55.29731656
 31
0.0
  0
LINE
  5
1B4
100
AcDbEntity
  8
detail
 62
    16
  6
CONTINUOUS
370
    -2
100
AcDbLine
 10
18.99919972
 20
-55.26731656
 30
0.0
 11
18.9472382
 21
-55.29731656
 31
0.0
  0
LINE
  5
1B5
100
AcDbEntity
  8
detail
 62
    16
  6
CONTINUOUS
370
    -2
100
AcDbLine
 10
19.02419972
 20
-55.26731656
 30
0.0
 11
18.9722382
 21
-55.29731656
 31
0.0
  0
LINE
  5
1B6
100
AcDbEntity
  8
detail
 62
    16
  6
CONTINUOUS
370
    -2
100
AcDbLine
 10
19.04919972
 20
-55.26731656
 30
0.0
 11
18.9972382
 21
-55.29731656
 31
0.0
  0
LINE
  5
1B7
100
AcDbEntity
  8
detail
 62
    16
  6
CONTINUOUS
370
    -2
100
AcDbLine
 10
19.07419972
 20
-55.26731656
 30
0.0
 11
19.0222382
 21
-55.29731656
 31
0.0
  0
LINE
  5
1B8
100
AcDbEntity
  8
detail
 62
    16
  6
CONTINUOUS
370
    -2
100
AcDbLine
 10
19.09919972
 20
-55.26731656
 30
0.0
 11
19.0472382
 21
-55.29731656
 31
0.0
  0
LINE
  5
1B9
100
AcDbEntity
  8
detail
 62
    16
  6
CONTINUOUS
370
    -2
100
AcDbLine
 10
19.12419972
 20
-55.26731656
 30
0.0
 11
19.0722382
 21
-55.29731656
 31
0.0
  0
LINE
  5
1BA
100
AcDbEntity
  8
detail
 62
    16
  6
CONTINUOUS
370
    -2
100
AcDbLine
 10
19.14919972
 20
-55.26731656
 30
0.0
 11
19.0972382
 21
-55.29731656
 31
0.0
  0
LINE
  5
1BB
100
AcDbEntity
  8
detail
 62
    16
  6
CONTINUOUS
370
    -2
100
AcDbLine
 10
19.17419972
 20
-55.26731656
 30
0.0
 11
19.1222382
 21
-55.29731656
 31
0.0
  0
LINE
  5
1BC
100
AcDbEntity
  8
detail
 62
    16
  6
CONTINUOUS
370
    -2
100
AcDbLine
 10
19.19919972
 20
-55.26731656
 30
0.0
 11
19.1472382
 21
-55.29731656
 31
0.0
  0
LINE
  5
1BD
100
AcDbEntity
  8
detail
 62
    16
  6
CONTINUOUS
370
    -2
100
AcDbLine
 10
19.22419972
 20
-55.26731656
 30
0.0
 11
19.1722382
 21
-55.29731656
 31
0.0
  0
LINE
  5
1BE
100
AcDbEntity
  8
detail
 62
    16
  6
CONTINUOUS
370
    -2
100
AcDbLine
 10
19.24919972
 20
-55.26731656
 30
0.0
 11
19.1972382
 21
-55.29731656
 31
0.0
  0
LINE
  5
1BF
100
AcDbEntity
  8
detail
 62
    16
  6
CONTINUOUS
370
    -2
100
AcDbLine
 10
19.27419972
 20
-55.26731656
 30
0.0
 11
19.2222382
 21
-55.29731656
 31
0.0
  0
LINE
  5
1C0
100
AcDbEntity
  8
detail
 62
    16
  6
CONTINUOUS
370
    -2
100
AcDbLine
 10
19.29919972
 20
-55.26731656
 30
0.0
 11
19.2472382
 21
-55.29731656
 31
0.0
  0
LINE
  5
1C1
100
AcDbEntity
  8
detail
 62
    16
  6
CONTINUOUS
370
    -2
100
AcDbLine
 10
19.32419972
 20
-55.26731656
 30
0.0
 11
19.2722382
 21
-55.29731656
 31
0.0
  0
LINE
  5
1C2
100
AcDbEntity
  8
detail
 62
    16
  6
CONTINUOUS
370
    -2
100
AcDbLine
 10
19.34919972
 20
-55.26731656
 30
0.0
 11
19.2972382
 21
-55.29731656
 31
0.0
  0
LINE
  5
1C3
100
AcDbEntity
  8
detail
 62
    16
  6
CONTINUOUS
370
    -2
100
AcDbLine
 10
19.37419972
 20
-55.26731656
 30
0.0
 11
19.3222382
 21
-55.29731656
 31
0.0
  0
LINE
  5
1C4
100
AcDbEntity
  8
detail
 62
    16
  6
CONTINUOUS
370
    -2
100
AcDbLine
 10
19.39919972
 20
-55.26731656
 30
0.0
 11
19.3472382
 21
-55.29731656
 31
0.0
  0
LINE
  5
1C5
100
AcDbEntity
  8
detail
 62
    16
  6
CONTINUOUS
370
    -2
100
AcDbLine
 10
19.42419972
 20
-55.26731656
 30
0.0
 11
19.3722382
 21
-55.29731656
 31
0.0
  0
LINE
  5
1C6
100
AcDbEntity
  8
detail
 62
    16
  6
CONTINUOUS
370
    -2
100
AcDbLine
 10
19.43681402
 20
-55.27446745
 30
0.0
 11
19.3972382
 21
-55.29731656
 31
0.0
  0
LINE
  5
1C7
100
AcDbEntity
  8
detail
 62
    16
  6
CONTINUOUS
370
    -2
100
AcDbLine
 10
19.43681402
 20
-55.2889012
 30
0.0
 11
19.4222382
 21
-55.29731656
 31
0.0
  0
ENDBLK
  5
1C8
100
AcDbEntity
100
AcDbBlockEnd
  0
BLOCK
  5
1C9
100
AcDbEntity
  8
detail
100
AcDbBlockBegin
  2
*X11
 70
     1
 10
0.0
 20
0.0
 30
0.0
  3
*X11
  1

  4
Cadwork hatch
  0
LINE
  5
1CA
100
AcDbEntity
  8
detail
 62
    16
  6
CONTINUOUS
370
    -2
100
AcDbLine
 10
18.29997902
 20
-55.29731632
 30
0.0
 11
18.47997911
 21
-55.47731677
 31
0.0
  0
LINE
  5
1CB
100
AcDbEntity
  8
detail
 62
    16
  6
CONTINUOUS
370
    -2
100
AcDbLine
 10
18.47997911
 20
-55.29731632
 30
0.0
 11
18.29997902
 21
-55.47731677
 31
0.0
  0
ENDBLK
  5
1CC
100
AcDbEntity
100
AcDbBlockEnd
  0
BLOCK
  5
1CD
100
AcDbEntity
  8
detail
100
AcDbBlockBegin
  2
*X12
 70
     1
 10
0.0
 20
0.0
 30
0.0
  3
*X12
  1

  4
Cadwork hatch
  0
LINE
  5
1CE
100
AcDbEntity
  8
detail
 62
    16
  6
CONTINUOUS
370
    -2
100
AcDbLine
 10
18.29997902
 20
-55.23731649
 30
0.0
 11
18.47997911
 21
-55.29731632
 31
0.0
  0
LINE
  5
1CF
100
AcDbEntity
  8
detail
 62
    16
  6
CONTINUOUS
370
    -2
100
AcDbLine
 10
18.47997911
 20
-55.23731649
 30
0.0
 11
18.29997902
 21
-55.29731632
 31
0.0
  0
ENDBLK
  5
1D0
100
AcDbEntity
100
AcDbBlockEnd
  0
BLOCK
  5
1D1
100
AcDbEntity
  8
detail
100
AcDbBlockBegin
  2
*X13
 70
     1
 10
0.0
 20
0.0
 30
0.0
  3
*X13
  1

  4
Cadwork hatch
  0
LINE
  5
1D2
100
AcDbEntity
  8
detail
 62
    16
  6
CONTINUOUS
370
    -2
100
AcDbLine
 10
18.54997911
 20
-54.98991962
 30
0.0
 11
18.5399791
 21
-54.98991962
 31
0.0
  0
LINE
  5
1D3
100
AcDbEntity
  8
detail
 62
    16
  6
CONTINUOUS
370
    -2
100
AcDbLine
 10
18.54997911
 20
-54.99843068
 30
0.0
 11
18.5399791
 21
-54.99843068
 31
0.0
  0
LINE
  5
1D4
100
AcDbEntity
  8
detail
 62
    16
  6
CONTINUOUS
370
    -2
100
AcDbLine
 10
18.54997911
 20
-55.00694173
 30
0.0
 11
18.5399791
 21
-55.00694173
 31
0.0
  0
LINE
  5
1D5
100
AcDbEntity
  8
detail
 62
    16
  6
CONTINUOUS
370
    -2
100
AcDbLine
 10
18.54997911
 20
-55.01545278
 30
0.0
 11
18.5399791
 21
-55.01545278
 31
0.0
  0
LINE
  5
1D6
100
AcDbEntity
  8
detail
 62
    16
  6
CONTINUOUS
370
    -2
100
AcDbLine
 10
18.54997911
 20
-55.02396384
 30
0.0
 11
18.5399791
 21
-55.02396384
 31
0.0
  0
LINE
  5
1D7
100
AcDbEntity
  8
detail
 62
    16
  6
CONTINUOUS
370
    -2
100
AcDbLine
 10
18.54997911
 20
-55.03247489
 30
0.0
 11
18.5399791
 21
-55.03247489
 31
0.0
  0
LINE
  5
1D8
100
AcDbEntity
  8
detail
 62
    16
  6
CONTINUOUS
370
    -2
100
AcDbLine
 10
18.54997911
 20
-55.04098595
 30
0.0
 11
18.5399791
 21
-55.04098595
 31
0.0
  0
LINE
  5
1D9
100
AcDbEntity
  8
detail
 62
    16
  6
CONTINUOUS
370
    -2
100
AcDbLine
 10
18.54997911
 20
-55.049497
 30
0.0
 11
18.5399791
 21
-55.049497
 31
0.0
  0
LINE
  5
1DA
100
AcDbEntity
  8
detail
 62
    16
  6
CONTINUOUS
370
    -2
100
AcDbLine
 10
18.54997911
 20
-55.05800805
 30
0.0
 11
18.5399791
 21
-55.05800805
 31
0.0
  0
LINE
  5
1DB
100
AcDbEntity
  8
detail
 62
    16
  6
CONTINUOUS
370
    -2
100
AcDbLine
 10
18.54997911
 20
-55.06651911
 30
0.0
 11
18.5399791
 21
-55.06651911
 31
0.0
  0
LINE
  5
1DC
100
AcDbEntity
  8
detail
 62
    16
  6
CONTINUOUS
370
    -2
100
AcDbLine
 10
18.54997911
 20
-55.07503016
 30
0.0
 11
18.5399791
 21
-55.07503016
 31
0.0
  0
LINE
  5
1DD
100
AcDbEntity
  8
detail
 62
    16
  6
CONTINUOUS
370
    -2
100
AcDbLine
 10
18.54997911
 20
-55.08354122
 30
0.0
 11
18.5399791
 21
-55.08354122
 31
0.0
  0
LINE
  5
1DE
100
AcDbEntity
  8
detail
 62
    16
  6
CONTINUOUS
370
    -2
100
AcDbLine
 10
18.54997911
 20
-55.09205227
 30
0.0
 11
18.5399791
 21
-55.09205227
 31
0.0
  0
LINE
  5
1DF
100
AcDbEntity
  8
detail
 62
    16
  6
CONTINUOUS
370
    -2
100
AcDbLine
 10
18.54997911
 20
-55.10056332
 30
0.0
 11
18.5399791
 21
-55.10056332
 31
0.0
  0
LINE
  5
1E0
100
AcDbEntity
  8
detail
 62
    16
  6
CONTINUOUS
370
    -2
100
AcDbLine
 10
18.54997911
 20
-55.10907438
 30
0.0
 11
18.5399791
 21
-55.10907438
 31
0.0
  0
LINE
  5
1E1
100
AcDbEntity
  8
detail
 62
    16
  6
CONTINUOUS
370
    -2
100
AcDbLine
 10
18.54997911
 20
-55.11758543
 30
0.0
 11
18.5399791
 21
-55.11758543
 31
0.0
  0
LINE
  5
1E2
100
AcDbEntity
  8
detail
 62
    16
  6
CONTINUOUS
370
    -2
100
AcDbLine
 10
18.54997911
 20
-55.12609649
 30
0.0
 11
18.5399791
 21
-55.12609649
 31
0.0
  0
LINE
  5
1E3
100
AcDbEntity
  8
detail
 62
    16
  6
CONTINUOUS
370
    -2
100
AcDbLine
 10
18.54997911
 20
-55.13460754
 30
0.0
 11
18.5399791
 21
-55.13460754
 31
0.0
  0
LINE
  5
1E4
100
AcDbEntity
  8
detail
 62
    16
  6
CONTINUOUS
370
    -2
100
AcDbLine
 10
18.54997911
 20
-55.14311859
 30
0.0
 11
18.5399791
 21
-55.14311859
 31
0.0
  0
LINE
  5
1E5
100
AcDbEntity
  8
detail
 62
    16
  6
CONTINUOUS
370
    -2
100
AcDbLine
 10
18.54997911
 20
-55.15162965
 30
0.0
 11
18.5399791
 21
-55.15162965
 31
0.0
  0
LINE
  5
1E6
100
AcDbEntity
  8
detail
 62
    16
  6
CONTINUOUS
370
    -2
100
AcDbLine
 10
18.54997911
 20
-55.1601407
 30
0.0
 11
18.5399791
 21
-55.1601407
 31
0.0
  0
LINE
  5
1E7
100
AcDbEntity
  8
detail
 62
    16
  6
CONTINUOUS
370
    -2
100
AcDbLine
 10
18.54997911
 20
-55.16865176
 30
0.0
 11
18.5399791
 21
-55.16865176
 31
0.0
  0
LINE
  5
1E8
100
AcDbEntity
  8
detail
 62
    16
  6
CONTINUOUS
370
    -2
100
AcDbLine
 10
18.54997911
 20
-55.17716281
 30
0.0
 11
18.5399791
 21
-55.17716281
 31
0.0
  0
LINE
  5
1E9
100
AcDbEntity
  8
detail
 62
    16
  6
CONTINUOUS
370
    -2
100
AcDbLine
 10
18.54997911
 20
-55.18567386
 30
0.0
 11
18.5399791
 21
-55.18567386
 31
0.0
  0
LINE
  5
1EA
100
AcDbEntity
  8
detail
 62
    16
  6
CONTINUOUS
370
    -2
100
AcDbLine
 10
18.54997911
 20
-55.19418492
 30
0.0
 11
18.5399791
 21
-55.19418492
 31
0.0
  0
LINE
  5
1EB
100
AcDbEntity
  8
detail
 62
    16
  6
CONTINUOUS
370
    -2
100
AcDbLine
 10
18.54997911
 20
-55.20269597
 30
0.0
 11
18.5399791
 21
-55.20269597
 31
0.0
  0
LINE
  5
1EC
100
AcDbEntity
  8
detail
 62
    16
  6
CONTINUOUS
370
    -2
100
AcDbLine
 10
18.54997911
 20
-55.21120703
 30
0.0
 11
18.5399791
 21
-55.21120703
 31
0.0
  0
LINE
  5
1ED
100
AcDbEntity
  8
detail
 62
    16
  6
CONTINUOUS
370
    -2
100
AcDbLine
 10
18.54997911
 20
-55.21971808
 30
0.0
 11
18.5399791
 21
-55.21971808
 31
0.0
  0
LINE
  5
1EE
100
AcDbEntity
  8
detail
 62
    16
  6
CONTINUOUS
370
    -2
100
AcDbLine
 10
18.54997911
 20
-55.22822913
 30
0.0
 11
18.5399791
 21
-55.22822913
 31
0.0
  0
LINE
  5
1EF
100
AcDbEntity
  8
detail
 62
    16
  6
CONTINUOUS
370
    -2
100
AcDbLine
 10
18.54997911
 20
-55.23674019
 30
0.0
 11
18.5399791
 21
-55.23674019
 31
0.0
  0
LINE
  5
1F0
100
AcDbEntity
  8
detail
 62
    16
  6
CONTINUOUS
370
    -2
100
AcDbLine
 10
18.54997911
 20
-55.24525124
 30
0.0
 11
18.5399791
 21
-55.24525124
 31
0.0
  0
LINE
  5
1F1
100
AcDbEntity
  8
detail
 62
    16
  6
CONTINUOUS
370
    -2
100
AcDbLine
 10
18.54997911
 20
-55.25376229
 30
0.0
 11
18.5399791
 21
-55.25376229
 31
0.0
  0
LINE
  5
1F2
100
AcDbEntity
  8
detail
 62
    16
  6
CONTINUOUS
370
    -2
100
AcDbLine
 10
18.54997911
 20
-55.26227335
 30
0.0
 11
18.5399791
 21
-55.26227335
 31
0.0
  0
ENDBLK
  5
1F3
100
AcDbEntity
100
AcDbBlockEnd
  0
BLOCK
  5
1F4
100
AcDbEntity
  8
detail
100
AcDbBlockBegin
  2
*X14
 70
     1
 10
0.0
 20
0.0
 30
0.0
  3
*X14
  1

  4
Cadwork hatch
  0
LINE
  5
1F5
100
AcDbEntity
  8
detail
 62
    16
  6
CONTINUOUS
370
    -2
100
AcDbLine
 10
18.4899792
 20
-55.20731682
 30
0.0
 11
18.53997905
 21
-55.26731665
 31
0.0
  0
LINE
  5
1F6
100
AcDbEntity
  8
detail
 62
    16
  6
CONTINUOUS
370
    -2
100
AcDbLine
 10
18.53997905
 20
-55.20731682
 30
0.0
 11
18.4899792
 21
-55.26731665
 31
0.0
  0
ENDBLK
  5
1F7
100
AcDbEntity
100
AcDbBlockEnd
  0
BLOCK
  5
1F8
100
AcDbEntity
  8
detail
100
AcDbBlockBegin
  2
*X15
 70
     1
 10
0.0
 20
0.0
 30
0.0
  3
*X15
  1

  4
Cadwork hatch
  0
LINE
  5
1F9
100
AcDbEntity
  8
detail
 62
    16
  6
CONTINUOUS
370
    -2
100
AcDbLine
 10
19.43681402
 20
-55.5282
 30
0.0
 11
18.5549791
 21
-55.5282
 31
0.0
  0
LINE
  5
1FA
100
AcDbEntity
  8
detail
 62
    16
  6
CONTINUOUS
370
    -2
100
AcDbLine
 10
19.43681402
 20
-55.5291
 30
0.0
 11
18.5549791
 21
-55.5291
 31
0.0
  0
LINE
  5
1FB
100
AcDbEntity
  8
detail
 62
    16
  6
CONTINUOUS
370
    -2
100
AcDbLine
 10
19.43681402
 20
-55.53
 30
0.0
 11
18.5549791
 21
-55.53
 31
0.0
  0
LINE
  5
1FC
100
AcDbEntity
  8
detail
 62
    16
  6
CONTINUOUS
370
    -2
100
AcDbLine
 10
19.43681402
 20
-55.5309
 30
0.0
 11
18.5549791
 21
-55.5309
 31
0.0
  0
LINE
  5
1FD
100
AcDbEntity
  8
detail
 62
    16
  6
CONTINUOUS
370
    -2
100
AcDbLine
 10
19.43681402
 20
-55.5318
 30
0.0
 11
18.5549791
 21
-55.5318
 31
0.0
  0
LINE
  5
1FE
100
AcDbEntity
  8
detail
 62
    16
  6
CONTINUOUS
370
    -2
100
AcDbLine
 10
19.43681402
 20
-55.5327
 30
0.0
 11
18.5549791
 21
-55.5327
 31
0.0
  0
LINE
  5
1FF
100
AcDbEntity
  8
detail
 62
    16
  6
CONTINUOUS
370
    -2
100
AcDbLine
 10
19.43681402
 20
-55.5336
 30
0.0
 11
18.5549791
 21
-55.5336
 31
0.0
  0
LINE
  5
200
100
AcDbEntity
  8
detail
 62
    16
  6
CONTINUOUS
370
    -2
100
AcDbLine
 10
19.43681402
 20
-55.5345
 30
0.0
 11
18.5549791
 21
-55.5345
 31
0.0
  0
LINE
  5
201
100
AcDbEntity
  8
detail
 62
    16
  6
CONTINUOUS
370
    -2
100
AcDbLine
 10
19.43681402
 20
-55.5354
 30
0.0
 11
18.5549791
 21
-55.5354
 31
0.0
  0
LINE
  5
202
100
AcDbEntity
  8
detail
 62
    16
  6
CONTINUOUS
370
    -2
100
AcDbLine
 10
19.43681402
 20
-55.5363
 30
0.0
 11
18.5549791
 21
-55.5363
 31
0.0
  0
LINE
  5
203
100
AcDbEntity
  8
detail
 62
    16
  6
CONTINUOUS
370
    -2
100
AcDbLine
 10
19.43681402
 20
-55.5372
 30
0.0
 11
18.5549791
 21
-55.5372
 31
0.0
  0
LINE
  5
204
100
AcDbEntity
  8
detail
 62
    16
  6
CONTINUOUS
370
    -2
100
AcDbLine
 10
19.43681402
 20
-55.5381
 30
0.0
 11
18.5549791
 21
-55.5381
 31
0.0
  0
LINE
  5
205
100
AcDbEntity
  8
detail
 62
    16
  6
CONTINUOUS
370
    -2
100
AcDbLine
 10
19.43681402
 20
-55.539
 30
0.0
 11
18.5549791
 21
-55.539
 31
0.0
  0
LINE
  5
206
100
AcDbEntity
  8
detail
 62
    16
  6
CONTINUOUS
370
    -2
100
AcDbLine
 10
19.43681402
 20
-55.5399
 30
0.0
 11
18.5549791
 21
-55.5399
 31
0.0
  0
LINE
  5
207
100
AcDbEntity
  8
detail
 62
    16
  6
CONTINUOUS
370
    -2
100
AcDbLine
 10
19.43681402
 20
-55.5408
 30
0.0
 11
18.5549791
 21
-55.5408
 31
0.0
  0
LINE
  5
208
100
AcDbEntity
  8
detail
 62
    16
  6
CONTINUOUS
370
    -2
100
AcDbLine
 10
19.43681402
 20
-55.5417
 30
0.0
 11
18.5549791
 21
-55.5417
 31
0.0
  0
ENDBLK
  5
209
100
AcDbEntity
100
AcDbBlockEnd
  0
BLOCK
  5
20A
100
AcDbEntity
  8
detail
100
AcDbBlockBegin
  2
*X16
 70
     1
 10
0.0
 20
0.0
 30
0.0
  3
*X16
  1

  4
Cadwork hatch
  0
LINE
  5
20B
100
AcDbEntity
  8
detail
 62
    16
  6
CONTINUOUS
370
    -2
100
AcDbLine
 10
18.54997915
 20
-55.47731677
 30
0.0
 11
18.59997912
 21
-55.52731687
 31
0.0
  0
LINE
  5
20C
100
AcDbEntity
  8
detail
 62
    16
  6
CONTINUOUS
370
    -2
100
AcDbLine
 10
18.59997912
 20
-55.47731677
 30
0.0
 11
18.54997915
 21
-55.52731687
 31
0.0
  0
ENDBLK
  5
20D
100
AcDbEntity
100
AcDbBlockEnd
  0
BLOCK
  5
20E
100
AcDbEntity
  8
detail
100
AcDbBlockBegin
  2
*X17
 70
     1
 10
0.0
 20
0.0
 30
0.0
  3
*X17
  1

  4
Cadwork hatch
  0
LINE
  5
20F
100
AcDbEntity
  8
detail
 62
    16
  6
CONTINUOUS
370
    -2
100
AcDbLine
 10
19.0345415
 20
-55.47731677
 30
0.0
 11
19.08454148
 21
-55.52731687
 31
0.0
  0
LINE
  5
210
100
AcDbEntity
  8
detail
 62
    16
  6
CONTINUOUS
370
    -2
100
AcDbLine
 10
19.08454148
 20
-55.47731677
 30
0.0
 11
19.0345415
 21
-55.52731687
 31
0.0
  0
ENDBLK
  5
211
100
AcDbEntity
100
AcDbBlockEnd
  0
BLOCK
  5
212
100
AcDbEntity
  8
detail
100
AcDbBlockBegin
  2
*X18
 70
     1
 10
0.0
 20
0.0
 30
0.0
  3
*X18
  1

  4
Cadwork hatch
  0
LINE
  5
213
100
AcDbEntity
  8
detail
 62
    16
  6
CONTINUOUS
370
    -2
100
AcDbLine
 10
18.5489791
 20
-56.41862758
 30
0.0
 11
18.5439791
 21
-56.41862758
 31
0.0
  0
LINE
  5
214
100
AcDbEntity
  8
detail
 62
    16
  6
CONTINUOUS
370
    -2
100
AcDbLine
 10
18.5489791
 20
-56.43554979
 30
0.0
 11
18.5439791
 21
-56.43554979
 31
0.0
  0
LINE
  5
215
100
AcDbEntity
  8
detail
 62
    16
  6
CONTINUOUS
370
    -2
100
AcDbLine
 10
18.5489791
 20
-56.45247199
 30
0.0
 11
18.5439791
 21
-56.45247199
 31
0.0
  0
LINE
  5
216
100
AcDbEntity
  8
detail
 62
    16
  6
CONTINUOUS
370
    -2
100
AcDbLine
 10
18.5489791
 20
-56.46939419
 30
0.0
 11
18.5439791
 21
-56.46939419
 31
0.0
  0
LINE
  5
217
100
AcDbEntity
  8
detail
 62
    16
  6
CONTINUOUS
370
    -2
100
AcDbLine
 10
18.5489791
 20
-56.4863164
 30
0.0
 11
18.5439791
 21
-56.4863164
 31
0.0
  0
LINE
  5
218
100
AcDbEntity
  8
detail
 62
    16
  6
CONTINUOUS
370
    -2
100
AcDbLine
 10
18.5489791
 20
-56.5032386
 30
0.0
 11
18.5439791
 21
-56.5032386
 31
0.0
  0
LINE
  5
219
100
AcDbEntity
  8
detail
 62
    16
  6
CONTINUOUS
370
    -2
100
AcDbLine
 10
18.5489791
 20
-56.5201608
 30
0.0
 11
18.5439791
 21
-56.5201608
 31
0.0
  0
LINE
  5
21A
100
AcDbEntity
  8
detail
 62
    16
  6
CONTINUOUS
370
    -2
100
AcDbLine
 10
18.5489791
 20
-56.53708301
 30
0.0
 11
18.5439791
 21
-56.53708301
 31
0.0
  0
LINE
  5
21B
100
AcDbEntity
  8
detail
 62
    16
  6
CONTINUOUS
370
    -2
100
AcDbLine
 10
18.5489791
 20
-56.55400521
 30
0.0
 11
18.5439791
 21
-56.55400521
 31
0.0
  0
LINE
  5
21C
100
AcDbEntity
  8
detail
 62
    16
  6
CONTINUOUS
370
    -2
100
AcDbLine
 10
18.5489791
 20
-56.57092742
 30
0.0
 11
18.5439791
 21
-56.57092742
 31
0.0
  0
LINE
  5
21D
100
AcDbEntity
  8
detail
 62
    16
  6
CONTINUOUS
370
    -2
100
AcDbLine
 10
18.5489791
 20
-56.58784962
 30
0.0
 11
18.5439791
 21
-56.58784962
 31
0.0
  0
LINE
  5
21E
100
AcDbEntity
  8
detail
 62
    16
  6
CONTINUOUS
370
    -2
100
AcDbLine
 10
18.5489791
 20
-56.60477182
 30
0.0
 11
18.5439791
 21
-56.60477182
 31
0.0
  0
LINE
  5
21F
100
AcDbEntity
  8
detail
 62
    16
  6
CONTINUOUS
370
    -2
100
AcDbLine
 10
18.5489791
 20
-56.62169403
 30
0.0
 11
18.5439791
 21
-56.62169403
 31
0.0
  0
LINE
  5
220
100
AcDbEntity
  8
detail
 62
    16
  6
CONTINUOUS
370
    -2
100
AcDbLine
 10
18.5489791
 20
-56.63861623
 30
0.0
 11
18.5439791
 21
-56.63861623
 31
0.0
  0
LINE
  5
221
100
AcDbEntity
  8
detail
 62
    16
  6
CONTINUOUS
370
    -2
100
AcDbLine
 10
18.5489791
 20
-56.65553844
 30
0.0
 11
18.5439791
 21
-56.65553844
 31
0.0
  0
LINE
  5
222
100
AcDbEntity
  8
detail
 62
    16
  6
CONTINUOUS
370
    -2
100
AcDbLine
 10
18.5489791
 20
-56.67246064
 30
0.0
 11
18.5439791
 21
-56.67246064
 31
0.0
  0
LINE
  5
223
100
AcDbEntity
  8
detail
 62
    16
  6
CONTINUOUS
370
    -2
100
AcDbLine
 10
18.5489791
 20
-56.68938284
 30
0.0
 11
18.5439791
 21
-56.68938284
 31
0.0
  0
LINE
  5
224
100
AcDbEntity
  8
detail
 62
    16
  6
CONTINUOUS
370
    -2
100
AcDbLine
 10
18.5489791
 20
-56.70630505
 30
0.0
 11
18.5439791
 21
-56.70630505
 31
0.0
  0
LINE
  5
225
100
AcDbEntity
  8
detail
 62
    16
  6
CONTINUOUS
370
    -2
100
AcDbLine
 10
18.5489791
 20
-56.72322725
 30
0.0
 11
18.5439791
 21
-56.72322725
 31
0.0
  0
LINE
  5
226
100
AcDbEntity
  8
detail
 62
    16
  6
CONTINUOUS
370
    -2
100
AcDbLine
 10
18.5489791
 20
-56.74014945
 30
0.0
 11
18.5439791
 21
-56.74014945
 31
0.0
  0
ENDBLK
  5
227
100
AcDbEntity
100
AcDbBlockEnd
  0
BLOCK
  5
228
100
AcDbEntity
  8
detail
100
AcDbBlockBegin
  2
*X19
 70
     1
 10
0.0
 20
0.0
 30
0.0
  3
*X19
  1

  4
Cadwork hatch
  0
LINE
  5
229
100
AcDbEntity
  8
detail
 62
    16
  6
CONTINUOUS
370
    -2
100
AcDbLine
 10
18.53352837
 20
-56.41862758
 30
0.0
 11
18.52852837
 21
-56.41862758
 31
0.0
  0
LINE
  5
22A
100
AcDbEntity
  8
detail
 62
    16
  6
CONTINUOUS
370
    -2
100
AcDbLine
 10
18.53352837
 20
-56.43554979
 30
0.0
 11
18.52852837
 21
-56.43554979
 31
0.0
  0
LINE
  5
22B
100
AcDbEntity
  8
detail
 62
    16
  6
CONTINUOUS
370
    -2
100
AcDbLine
 10
18.53352837
 20
-56.45247199
 30
0.0
 11
18.52852837
 21
-56.45247199
 31
0.0
  0
LINE
  5
22C
100
AcDbEntity
  8
detail
 62
    16
  6
CONTINUOUS
370
    -2
100
AcDbLine
 10
18.53352837
 20
-56.46939419
 30
0.0
 11
18.52852837
 21
-56.46939419
 31
0.0
  0
LINE
  5
22D
100
AcDbEntity
  8
detail
 62
    16
  6
CONTINUOUS
370
    -2
100
AcDbLine
 10
18.53352837
 20
-56.4863164
 30
0.0
 11
18.52852837
 21
-56.4863164
 31
0.0
  0
LINE
  5
22E
100
AcDbEntity
  8
detail
 62
    16
  6
CONTINUOUS
370
    -2
100
AcDbLine
 10
18.53352837
 20
-56.5032386
 30
0.0
 11
18.52852837
 21
-56.5032386
 31
0.0
  0
LINE
  5
22F
100
AcDbEntity
  8
detail
 62
    16
  6
CONTINUOUS
370
    -2
100
AcDbLine
 10
18.53352837
 20
-56.5201608
 30
0.0
 11
18.52852837
 21
-56.5201608
 31
0.0
  0
LINE
  5
230
100
AcDbEntity
  8
detail
 62
    16
  6
CONTINUOUS
370
    -2
100
AcDbLine
 10
18.53352837
 20
-56.53708301
 30
0.0
 11
18.52852837
 21
-56.53708301
 31
0.0
  0
LINE
  5
231
100
AcDbEntity
  8
detail
 62
    16
  6
CONTINUOUS
370
    -2
100
AcDbLine
 10
18.53352837
 20
-56.55400521
 30
0.0
 11
18.52852837
 21
-56.55400521
 31
0.0
  0
LINE
  5
232
100
AcDbEntity
  8
detail
 62
    16
  6
CONTINUOUS
370
    -2
100
AcDbLine
 10
18.53352837
 20
-56.57092742
 30
0.0
 11
18.52852837
 21
-56.57092742
 31
0.0
  0
LINE
  5
233
100
AcDbEntity
  8
detail
 62
    16
  6
CONTINUOUS
370
    -2
100
AcDbLine
 10
18.53352837
 20
-56.58784962
 30
0.0
 11
18.52852837
 21
-56.58784962
 31
0.0
  0
LINE
  5
234
100
AcDbEntity
  8
detail
 62
    16
  6
CONTINUOUS
370
    -2
100
AcDbLine
 10
18.53352837
 20
-56.60477182
 30
0.0
 11
18.52852837
 21
-56.60477182
 31
0.0
  0
LINE
  5
235
100
AcDbEntity
  8
detail
 62
    16
  6
CONTINUOUS
370
    -2
100
AcDbLine
 10
18.53352837
 20
-56.62169403
 30
0.0
 11
18.52852837
 21
-56.62169403
 31
0.0
  0
LINE
  5
236
100
AcDbEntity
  8
detail
 62
    16
  6
CONTINUOUS
370
    -2
100
AcDbLine
 10
18.53352837
 20
-56.63861623
 30
0.0
 11
18.52852837
 21
-56.63861623
 31
0.0
  0
LINE
  5
237
100
AcDbEntity
  8
detail
 62
    16
  6
CONTINUOUS
370
    -2
100
AcDbLine
 10
18.53352837
 20
-56.65553844
 30
0.0
 11
18.52852837
 21
-56.65553844
 31
0.0
  0
LINE
  5
238
100
AcDbEntity
  8
detail
 62
    16
  6
CONTINUOUS
370
    -2
100
AcDbLine
 10
18.53352837
 20
-56.67246064
 30
0.0
 11
18.52852837
 21
-56.67246064
 31
0.0
  0
LINE
  5
239
100
AcDbEntity
  8
detail
 62
    16
  6
CONTINUOUS
370
    -2
100
AcDbLine
 10
18.53352837
 20
-56.68938284
 30
0.0
 11
18.52852837
 21
-56.68938284
 31
0.0
  0
LINE
  5
23A
100
AcDbEntity
  8
detail
 62
    16
  6
CONTINUOUS
370
    -2
100
AcDbLine
 10
18.53352837
 20
-56.70630505
 30
0.0
 11
18.52852837
 21
-56.70630505
 31
0.0
  0
LINE
  5
23B
100
AcDbEntity
  8
detail
 62
    16
  6
CONTINUOUS
370
    -2
100
AcDbLine
 10
18.53352837
 20
-56.72322725
 30
0.0
 11
18.52852837
 21
-56.72322725
 31
0.0
  0
LINE
  5
23C
100
AcDbEntity
  8
detail
 62
    16
  6
CONTINUOUS
370
    -2
100
AcDbLine
 10
18.53352837
 20
-56.74014945
 30
0.0
 11
18.52852837
 21
-56.74014945
 31
0.0
  0
ENDBLK
  5
23D
100
AcDbEntity
100
AcDbBlockEnd
  0
BLOCK
  5
23E
100
AcDbEntity
  8
detail
100
AcDbBlockBegin
  2
*X20
 70
     1
 10
0.0
 20
0.0
 30
0.0
  3
*X20
  1

  4
Cadwork hatch
  0
LINE
  5
23F
100
AcDbEntity
  8
detail
 62
    16
  6
CONTINUOUS
370
    -2
100
AcDbLine
 10
18.51807763
 20
-56.41862758
 30
0.0
 11
18.51307763
 21
-56.41862758
 31
0.0
  0
LINE
  5
240
100
AcDbEntity
  8
detail
 62
    16
  6
CONTINUOUS
370
    -2
100
AcDbLine
 10
18.51807763
 20
-56.43554979
 30
0.0
 11
18.51307763
 21
-56.43554979
 31
0.0
  0
LINE
  5
241
100
AcDbEntity
  8
detail
 62
    16
  6
CONTINUOUS
370
    -2
100
AcDbLine
 10
18.51807763
 20
-56.45247199
 30
0.0
 11
18.51307763
 21
-56.45247199
 31
0.0
  0
LINE
  5
242
100
AcDbEntity
  8
detail
 62
    16
  6
CONTINUOUS
370
    -2
100
AcDbLine
 10
18.51807763
 20
-56.46939419
 30
0.0
 11
18.51307763
 21
-56.46939419
 31
0.0
  0
LINE
  5
243
100
AcDbEntity
  8
detail
 62
    16
  6
CONTINUOUS
370
    -2
100
AcDbLine
 10
18.51807763
 20
-56.4863164
 30
0.0
 11
18.51307763
 21
-56.4863164
 31
0.0
  0
LINE
  5
244
100
AcDbEntity
  8
detail
 62
    16
  6
CONTINUOUS
370
    -2
100
AcDbLine
 10
18.51807763
 20
-56.5032386
 30
0.0
 11
18.51307763
 21
-56.5032386
 31
0.0
  0
LINE
  5
245
100
AcDbEntity
  8
detail
 62
    16
  6
CONTINUOUS
370
    -2
100
AcDbLine
 10
18.51807763
 20
-56.5201608
 30
0.0
 11
18.51307763
 21
-56.5201608
 31
0.0
  0
LINE
  5
246
100
AcDbEntity
  8
detail
 62
    16
  6
CONTINUOUS
370
    -2
100
AcDbLine
 10
18.51807763
 20
-56.53708301
 30
0.0
 11
18.51307763
 21
-56.53708301
 31
0.0
  0
LINE
  5
247
100
AcDbEntity
  8
detail
 62
    16
  6
CONTINUOUS
370
    -2
100
AcDbLine
 10
18.51807763
 20
-56.55400521
 30
0.0
 11
18.51307763
 21
-56.55400521
 31
0.0
  0
LINE
  5
248
100
AcDbEntity
  8
detail
 62
    16
  6
CONTINUOUS
370
    -2
100
AcDbLine
 10
18.51807763
 20
-56.57092742
 30
0.0
 11
18.51307763
 21
-56.57092742
 31
0.0
  0
LINE
  5
249
100
AcDbEntity
  8
detail
 62
    16
  6
CONTINUOUS
370
    -2
100
AcDbLine
 10
18.51807763
 20
-56.58784962
 30
0.0
 11
18.51307763
 21
-56.58784962
 31
0.0
  0
LINE
  5
24A
100
AcDbEntity
  8
detail
 62
    16
  6
CONTINUOUS
370
    -2
100
AcDbLine
 10
18.51807763
 20
-56.60477182
 30
0.0
 11
18.51307763
 21
-56.60477182
 31
0.0
  0
LINE
  5
24B
100
AcDbEntity
  8
detail
 62
    16
  6
CONTINUOUS
370
    -2
100
AcDbLine
 10
18.51807763
 20
-56.62169403
 30
0.0
 11
18.51307763
 21
-56.62169403
 31
0.0
  0
LINE
  5
24C
100
AcDbEntity
  8
detail
 62
    16
  6
CONTINUOUS
370
    -2
100
AcDbLine
 10
18.51807763
 20
-56.63861623
 30
0.0
 11
18.51307763
 21
-56.63861623
 31
0.0
  0
LINE
  5
24D
100
AcDbEntity
  8
detail
 62
    16
  6
CONTINUOUS
370
    -2
100
AcDbLine
 10
18.51807763
 20
-56.65553844
 30
0.0
 11
18.51307763
 21
-56.65553844
 31
0.0
  0
LINE
  5
24E
100
AcDbEntity
  8
detail
 62
    16
  6
CONTINUOUS
370
    -2
100
AcDbLine
 10
18.51807763
 20
-56.67246064
 30
0.0
 11
18.51307763
 21
-56.67246064
 31
0.0
  0
LINE
  5
24F
100
AcDbEntity
  8
detail
 62
    16
  6
CONTINUOUS
370
    -2
100
AcDbLine
 10
18.51807763
 20
-56.68938284
 30
0.0
 11
18.51307763
 21
-56.68938284
 31
0.0
  0
LINE
  5
250
100
AcDbEntity
  8
detail
 62
    16
  6
CONTINUOUS
370
    -2
100
AcDbLine
 10
18.51807763
 20
-56.70630505
 30
0.0
 11
18.51307763
 21
-56.70630505
 31
0.0
  0
LINE
  5
251
100
AcDbEntity
  8
detail
 62
    16
  6
CONTINUOUS
370
    -2
100
AcDbLine
 10
18.51807763
 20
-56.72322725
 30
0.0
 11
18.51307763
 21
-56.72322725
 31
0.0
  0
LINE
  5
252
100
AcDbEntity
  8
detail
 62
    16
  6
CONTINUOUS
370
    -2
100
AcDbLine
 10
18.51807763
 20
-56.74014945
 30
0.0
 11
18.51307763
 21
-56.74014945
 31
0.0
  0
ENDBLK
  5
253
100
AcDbEntity
100
AcDbBlockEnd
  0
BLOCK
  5
254
100
AcDbEntity
  8
detail
100
AcDbBlockBegin
  2
*D1
 70
     1
 10
0.0
 20
0.0
 30
0.0
  3
*D1
  1

  4
Cadwork dimension
  0
TEXT
  5
255
100
AcDbEntity
  8
detail
 62
   160
370
    18
100
AcDbText
 10
17.98211861
 20
-55.64141224
 30
0.0
 40
0.016
  1
var.
  7
FRUTIGER_55_ROMAN
 50
89.9999975
 41
0.94
 51
0.0
100
AcDbText
  0
LINE
  5
256
100
AcDbEntity
  8
detail
 62
   160
370
    -2
100
AcDbLine
 10
17.97211861
 20
-55.60231656
 30
0.0
 11
18.20227971
 21
-55.60231656
 31
0.0
  0
LINE
  5
257
100
AcDbEntity
  8
detail
 62
   160
370
    -2
100
AcDbLine
 10
17.97211861
 20
-55.64743868
 30
0.0
 11
18.20227971
 21
-55.64743868
 31
0.0
  0
LINE
  5
258
100
AcDbEntity
  8
detail
 62
   160
370
    -2
100
AcDbLine
 10
17.99211861
 20
-55.58231656
 30
0.0
 11
17.99211861
 21
-55.66743868
 31
0.0
  0
LINE
  5
259
100
AcDbEntity
  8
detail
 62
   160
370
    -2
100
AcDbLine
 10
17.98211861
 20
-55.59231656
 30
0.0
 11
18.00211861
 21
-55.61231656
 31
0.0
  0
LINE
  5
25A
100
AcDbEntity
  8
detail
 62
   160
370
    -2
100
AcDbLine
 10
17.98211861
 20
-55.63743868
 30
0.0
 11
18.00211861
 21
-55.65743868
 31
0.0
  0
ENDBLK
  5
25B
100
AcDbEntity
100
AcDbBlockEnd
  0
BLOCK
  5
25C
100
AcDbEntity
  8
detail
100
AcDbBlockBegin
  2
*D2
 70
     1
 10
0.0
 20
0.0
 30
0.0
  3
*D2
  1

  4
Cadwork dimension
  0
TEXT
  5
25D
100
AcDbEntity
  8
detail
 62
   160
370
    18
100
AcDbText
 10
17.98211861
 20
-55.79292212
 30
0.0
 40
0.016
  1
100
  7
FRUTIGER_55_ROMAN
 50
89.9999975
 41
0.94
 51
0.0
100
AcDbText
  0
LINE
  5
25E
100
AcDbEntity
  8
detail
 62
   160
370
    -2
100
AcDbLine
 10
17.97211861
 20
-55.73276019
 30
0.0
 11
18.20227971
 21
-55.73276019
 31
0.0
  0
LINE
  5
25F
100
AcDbEntity
  8
detail
 62
   160
370
    -2
100
AcDbLine
 10
17.97211861
 20
-55.83296703
 30
0.0
 11
18.20227971
 21
-55.83296703
 31
0.0
  0
LINE
  5
260
100
AcDbEntity
  8
detail
 62
   160
370
    -2
100
AcDbLine
 10
17.99211861
 20
-55.71276019
 30
0.0
 11
17.99211861
 21
-55.85296703
 31
0.0
  0
LINE
  5
261
100
AcDbEntity
  8
detail
 62
   160
370
    -2
100
AcDbLine
 10
17.98211861
 20
-55.72276019
 30
0.0
 11
18.00211861
 21
-55.74276019
 31
0.0
  0
LINE
  5
262
100
AcDbEntity
  8
detail
 62
   160
370
    -2
100
AcDbLine
 10
17.98211861
 20
-55.82296703
 30
0.0
 11
18.00211861
 21
-55.84296703
 31
0.0
  0
ENDBLK
  5
263
100
AcDbEntity
100
AcDbBlockEnd
  0
BLOCK
  5
264
100
AcDbEntity
  8
detail
100
AcDbBlockBegin
  2
*D3
 70
     1
 10
0.0
 20
0.0
 30
0.0
  3
*D3
  1

  4
Cadwork dimension
  0
TEXT
  5
265
100
AcDbEntity
  8
detail
 62
   160
370
    18
100
AcDbText
 10
17.98211861
 20
-55.69951106
 30
0.0
 40
0.016
  1
84
  7
FRUTIGER_55_ROMAN
 50
89.9999975
 41
0.94
 51
0.0
100
AcDbText
  0
LINE
  5
266
100
AcDbEntity
  8
detail
 62
   160
370
    -2
100
AcDbLine
 10
17.97211861
 20
-55.64743868
 30
0.0
 11
18.20227971
 21
-55.64743868
 31
0.0
  0
LINE
  5
267
100
AcDbEntity
  8
detail
 62
   160
370
    -2
100
AcDbLine
 10
17.97211861
 20
-55.73276019
 30
0.0
 11
18.04211861
 21
-55.73276019
 31
0.0
  0
LINE
  5
268
100
AcDbEntity
  8
detail
 62
   160
370
    -2
100
AcDbLine
 10
17.99211861
 20
-55.62743868
 30
0.0
 11
17.99211861
 21
-55.75276019
 31
0.0
  0
LINE
  5
269
100
AcDbEntity
  8
detail
 62
   160
370
    -2
100
AcDbLine
 10
17.98211861
 20
-55.63743868
 30
0.0
 11
18.00211861
 21
-55.65743868
 31
0.0
  0
LINE
  5
26A
100
AcDbEntity
  8
detail
 62
   160
370
    -2
100
AcDbLine
 10
17.98211861
 20
-55.72276019
 30
0.0
 11
18.00211861
 21
-55.74276019
 31
0.0
  0
ENDBLK
  5
26B
100
AcDbEntity
100
AcDbBlockEnd
  0
BLOCK
  5
26C
100
AcDbEntity
  8
detail
100
AcDbBlockBegin
  2
*D4
 70
     1
 10
0.0
 20
0.0
 30
0.0
  3
*D4
  1

  4
Cadwork dimension
  0
TEXT
  5
26D
100
AcDbEntity
  8
detail
 62
   160
370
    18
100
AcDbText
 10
18.42515815
 20
-56.02370208
 30
0.0
 40
0.016
  1
var.
  7
FRUTIGER_55_ROMAN
 50
0.0
 41
0.94
 51
0.0
100
AcDbText
  0
LINE
  5
26E
100
AcDbEntity
  8
detail
 62
   160
370
    -2
100
AcDbLine
 10
18.3934988
 20
-56.05370208
 30
0.0
 11
18.3934988
 21
-55.81788849
 31
0.0
  0
LINE
  5
26F
100
AcDbEntity
  8
detail
 62
   160
370
    -2
100
AcDbLine
 10
18.4799791
 20
-56.05370208
 30
0.0
 11
18.4799791
 21
-55.89784992
 31
0.0
  0
LINE
  5
270
100
AcDbEntity
  8
detail
 62
   160
370
    -2
100
AcDbLine
 10
18.3734988
 20
-56.03370208
 30
0.0
 11
18.4999791
 21
-56.03370208
 31
0.0
  0
LINE
  5
271
100
AcDbEntity
  8
detail
 62
   160
370
    -2
100
AcDbLine
 10
18.3834988
 20
-56.04370208
 30
0.0
 11
18.4034988
 21
-56.02370208
 31
0.0
  0
LINE
  5
272
100
AcDbEntity
  8
detail
 62
   160
370
    -2
100
AcDbLine
 10
18.4699791
 20
-56.04370208
 30
0.0
 11
18.4899791
 21
-56.02370208
 31
0.0
  0
ENDBLK
  5
273
100
AcDbEntity
100
AcDbBlockEnd
  0
BLOCK
  5
274
100
AcDbEntity
  8
detail
100
AcDbBlockBegin
  2
*D5
 70
     1
 10
0.0
 20
0.0
 30
0.0
  3
*D5
  1

  4
Cadwork dimension
  0
TEXT
  5
275
100
AcDbEntity
  8
detail
 62
   160
370
    18
100
AcDbText
 10
18.25232136
 20
-56.02370208
 30
0.0
 40
0.016
  1
70
  7
FRUTIGER_55_ROMAN
 50
0.0
 41
0.94
 51
0.0
100
AcDbText
  0
LINE
  5
276
100
AcDbEntity
  8
detail
 62
   160
370
    -2
100
AcDbLine
 10
18.2279791
 20
-56.05370208
 30
0.0
 11
18.2279791
 21
-55.89784992
 31
0.0
  0
LINE
  5
277
100
AcDbEntity
  8
detail
 62
   160
370
    -2
100
AcDbLine
 10
18.2999791
 20
-56.05370208
 30
0.0
 11
18.2999791
 21
-55.89784992
 31
0.0
  0
LINE
  5
278
100
AcDbEntity
  8
detail
 62
   160
370
    -2
100
AcDbLine
 10
18.2079791
 20
-56.03370208
 30
0.0
 11
18.3199791
 21
-56.03370208
 31
0.0
  0
LINE
  5
279
100
AcDbEntity
  8
detail
 62
   160
370
    -2
100
AcDbLine
 10
18.2179791
 20
-56.04370208
 30
0.0
 11
18.2379791
 21
-56.02370208
 31
0.0
  0
LINE
  5
27A
100
AcDbEntity
  8
detail
 62
   160
370
    -2
100
AcDbLine
 10
18.2899791
 20
-56.04370208
 30
0.0
 11
18.3099791
 21
-56.02370208
 31
0.0
  0
ENDBLK
  5
27B
100
AcDbEntity
100
AcDbBlockEnd
  0
BLOCK
  5
27C
100
AcDbEntity
  8
detail
100
AcDbBlockBegin
  2
*D6
 70
     1
 10
0.0
 20
0.0
 30
0.0
  3
*D6
  1

  4
Cadwork dimension
  0
TEXT
  5
27D
100
AcDbEntity
  8
detail
 62
   160
370
    18
100
AcDbText
 10
18.33389138
 20
-56.02393907
 30
0.0
 40
0.016
  1
var.
  7
FRUTIGER_55_ROMAN
 50
0.0
 41
0.94
 51
0.0
100
AcDbText
  0
LINE
  5
27E
100
AcDbEntity
  8
detail
 62
   160
370
    -2
100
AcDbLine
 10
18.2999791
 20
-56.05370208
 30
0.0
 11
18.2999791
 21
-55.89784992
 31
0.0
  0
LINE
  5
27F
100
AcDbEntity
  8
detail
 62
   160
370
    -2
100
AcDbLine
 10
18.3934988
 20
-56.05370208
 30
0.0
 11
18.3934988
 21
-55.81788849
 31
0.0
  0
LINE
  5
280
100
AcDbEntity
  8
detail
 62
   160
370
    -2
100
AcDbLine
 10
18.2799791
 20
-56.03370208
 30
0.0
 11
18.4134988
 21
-56.03370208
 31
0.0
  0
LINE
  5
281
100
AcDbEntity
  8
detail
 62
   160
370
    -2
100
AcDbLine
 10
18.2899791
 20
-56.04370208
 30
0.0
 11
18.3099791
 21
-56.02370208
 31
0.0
  0
LINE
  5
282
100
AcDbEntity
  8
detail
 62
   160
370
    -2
100
AcDbLine
 10
18.3834988
 20
-56.04370208
 30
0.0
 11
18.4034988
 21
-56.02370208
 31
0.0
  0
ENDBLK
  5
283
100
AcDbEntity
100
AcDbBlockEnd
  0
BLOCK
  5
284
100
AcDbEntity
  8
detail
100
AcDbBlockBegin
  2
*D7
 70
     1
 10
0.0
 20
0.0
 30
0.0
  3
*D7
  1

  4
Cadwork dimension
  0
TEXT
  5
285
100
AcDbEntity
  8
detail
 62
   160
370
    18
100
AcDbText
 10
18.3783983
 20
-56.08786816
 30
0.0
 40
0.016
  1
180
  7
FRUTIGER_55_ROMAN
 50
0.0
 41
0.94
 51
0.0
100
AcDbText
  0
LINE
  5
286
100
AcDbEntity
  8
detail
 62
   160
370
    -2
100
AcDbLine
 10
18.2999791
 20
-56.11786816
 30
0.0
 11
18.2999791
 21
-56.04786816
 31
0.0
  0
LINE
  5
287
100
AcDbEntity
  8
detail
 62
   160
370
    -2
100
AcDbLine
 10
18.4799791
 20
-56.11786816
 30
0.0
 11
18.4799791
 21
-56.04786816
 31
0.0
  0
LINE
  5
288
100
AcDbEntity
  8
detail
 62
   160
370
    -2
100
AcDbLine
 10
18.2799791
 20
-56.09786816
 30
0.0
 11
18.4999791
 21
-56.09786816
 31
0.0
  0
LINE
  5
289
100
AcDbEntity
  8
detail
 62
   160
370
    -2
100
AcDbLine
 10
18.2899791
 20
-56.10786816
 30
0.0
 11
18.3099791
 21
-56.08786816
 31
0.0
  0
LINE
  5
28A
100
AcDbEntity
  8
detail
 62
   160
370
    -2
100
AcDbLine
 10
18.4699791
 20
-56.10786816
 30
0.0
 11
18.4899791
 21
-56.08786816
 31
0.0
  0
ENDBLK
  5
28B
100
AcDbEntity
100
AcDbBlockEnd
  0
BLOCK
  5
28C
100
AcDbEntity
  8
detail
100
AcDbBlockBegin
  2
*D8
 70
     1
 10
0.0
 20
0.0
 30
0.0
  3
*D8
  1

  4
Cadwork dimension
  0
TEXT
  5
28D
100
AcDbEntity
  8
detail
 62
   160
370
    18
100
AcDbText
 10
18.68896413
 20
-55.77974709
 30
0.0
 40
0.016
  1
220 / 260
  7
FRUTIGER_55_ROMAN
 50
89.9999975
 41
0.94
 51
0.0
100
AcDbText
  0
LINE
  5
28E
100
AcDbEntity
  8
detail
 62
   160
370
    -2
100
AcDbLine
 10
18.71896413
 20
-55.60231656
 30
0.0
 11
18.51666041
 21
-55.60231656
 31
0.0
  0
LINE
  5
28F
100
AcDbEntity
  8
detail
 62
   160
370
    -2
100
AcDbLine
 10
18.71896413
 20
-55.85731656
 30
0.0
 11
18.51666041
 21
-55.85731656
 31
0.0
  0
LINE
  5
290
100
AcDbEntity
  8
detail
 62
   160
370
    -2
100
AcDbLine
 10
18.69896413
 20
-55.58231656
 30
0.0
 11
18.69896413
 21
-55.87731656
 31
0.0
  0
LINE
  5
291
100
AcDbEntity
  8
detail
 62
   160
370
    -2
100
AcDbLine
 10
18.68896413
 20
-55.59231656
 30
0.0
 11
18.70896413
 21
-55.61231656
 31
0.0
  0
LINE
  5
292
100
AcDbEntity
  8
detail
 62
   160
370
    -2
100
AcDbLine
 10
18.68896413
 20
-55.84731656
 30
0.0
 11
18.70896413
 21
-55.86731656
 31
0.0
  0
ENDBLK
  5
293
100
AcDbEntity
100
AcDbBlockEnd
  0
BLOCK
  5
294
100
AcDbEntity
  8
detail
100
AcDbBlockBegin
  2
*D9
 70
     1
 10
0.0
 20
0.0
 30
0.0
  3
*D9
  1

  4
Cadwork dimension
  0
TEXT
  5
295
100
AcDbEntity
  8
detail
 62
   160
370
    18
100
AcDbText
 10
18.68896413
 20
-55.58124535
 30
0.0
 40
0.016
  1
60
  7
FRUTIGER_55_ROMAN
 50
89.9999975
 41
0.94
 51
0.0
100
AcDbText
  0
LINE
  5
296
100
AcDbEntity
  8
detail
 62
   160
370
    -2
100
AcDbLine
 10
18.71896413
 20
-55.54231656
 30
0.0
 11
18.64896413
 21
-55.54231656
 31
0.0
  0
LINE
  5
297
100
AcDbEntity
  8
detail
 62
   160
370
    -2
100
AcDbLine
 10
18.71896413
 20
-55.60231656
 30
0.0
 11
18.51666041
 21
-55.60231656
 31
0.0
  0
LINE
  5
298
100
AcDbEntity
  8
detail
 62
   160
370
    -2
100
AcDbLine
 10
18.69896413
 20
-55.52231656
 30
0.0
 11
18.69896413
 21
-55.62231656
 31
0.0
  0
LINE
  5
299
100
AcDbEntity
  8
detail
 62
   160
370
    -2
100
AcDbLine
 10
18.68896413
 20
-55.53231656
 30
0.0
 11
18.70896413
 21
-55.55231656
 31
0.0
  0
LINE
  5
29A
100
AcDbEntity
  8
detail
 62
   160
370
    -2
100
AcDbLine
 10
18.68896413
 20
-55.59231656
 30
0.0
 11
18.70896413
 21
-55.61231656
 31
0.0
  0
ENDBLK
  5
29B
100
AcDbEntity
100
AcDbBlockEnd
  0
BLOCK
  5
29C
100
AcDbEntity
  8
detail
100
AcDbBlockBegin
  2
*D10
 70
     1
 10
0.0
 20
0.0
 30
0.0
  3
*D10
  1

  4
Cadwork dimension
  0
TEXT
  5
29D
100
AcDbEntity
  8
detail
 62
   160
370
    18
100
AcDbText
 10
18.28319692
 20
-56.59705998
 30
0.0
 40
0.016
  1
23
  7
FRUTIGER_55_ROMAN
 50
0.0
 41
0.94
 51
0.0
100
AcDbText
  0
LINE
  5
29E
100
AcDbEntity
  8
detail
 62
   160
370
    -2
100
AcDbLine
 10
18.31065856
 20
-56.62705998
 30
0.0
 11
18.31065856
 21
-56.55705998
 31
0.0
  0
LINE
  5
29F
100
AcDbEntity
  8
detail
 62
   160
370
    -2
100
AcDbLine
 10
18.33165856
 20
-56.62705998
 30
0.0
 11
18.33165856
 21
-56.55705998
 31
0.0
  0
LINE
  5
2A0
100
AcDbEntity
  8
detail
 62
   160
370
    -2
100
AcDbLine
 10
18.29065856
 20
-56.60705998
 30
0.0
 11
18.35165856
 21
-56.60705998
 31
0.0
  0
LINE
  5
2A1
100
AcDbEntity
  8
detail
 62
   160
370
    -2
100
AcDbLine
 10
18.30065856
 20
-56.61705998
 30
0.0
 11
18.32065856
 21
-56.59705998
 31
0.0
  0
LINE
  5
2A2
100
AcDbEntity
  8
detail
 62
   160
370
    -2
100
AcDbLine
 10
18.32165856
 20
-56.61705998
 30
0.0
 11
18.34165856
 21
-56.59705998
 31
0.0
  0
ENDBLK
  5
2A3
100
AcDbEntity
100
AcDbBlockEnd
  0
ENDSEC
  0
SECTION
  2
ENTITIES
  0
INSERT
  5
2A4
100
AcDbEntity
  8
detail
 62
     0
370
     5
100
AcDbBlockReference
  2
*X1
 10
0.0
 20
0.0
 30
0.0
  0
INSERT
  5
2A5
100
AcDbEntity
  8
detail
 62
     0
370
     5
100
AcDbBlockReference
  2
*X2
 10
0.0
 20
0.0
 30
0.0
  0
INSERT
  5
2A6
100
AcDbEntity
  8
detail
 62
     0
370
     5
100
AcDbBlockReference
  2
*X3
 10
0.0
 20
0.0
 30
0.0
  0
INSERT
  5
2A7
100
AcDbEntity
  8
detail
 62
     0
370
     5
100
AcDbBlockReference
  2
*X4
 10
0.0
 20
0.0
 30
0.0
  0
INSERT
  5
2A8
100
AcDbEntity
  8
detail
 62
     0
370
     5
100
AcDbBlockReference
  2
*X5
 10
0.0
 20
0.0
 30
0.0
  0
INSERT
  5
2A9
100
AcDbEntity
  8
detail
 62
     0
370
     5
100
AcDbBlockReference
  2
*X6
 10
0.0
 20
0.0
 30
0.0
  0
INSERT
  5
2AA
100
AcDbEntity
  8
detail
 62
     0
370
     5
100
AcDbBlockReference
  2
*X7
 10
0.0
 20
0.0
 30
0.0
  0
INSERT
  5
2AB
100
AcDbEntity
  8
detail
 62
     0
370
     5
100
AcDbBlockReference
  2
*X8
 10
0.0
 20
0.0
 30
0.0
  0
INSERT
  5
2AC
100
AcDbEntity
  8
detail
 62
     0
370
     5
100
AcDbBlockReference
  2
*X9
 10
0.0
 20
0.0
 30
0.0
  0
INSERT
  5
2AD
100
AcDbEntity
  8
detail
 62
     0
370
     5
100
AcDbBlockReference
  2
*X10
 10
0.0
 20
0.0
 30
0.0
  0
INSERT
  5
2AE
100
AcDbEntity
  8
detail
 62
     0
370
     5
100
AcDbBlockReference
  2
*X11
 10
0.0
 20
0.0
 30
0.0
  0
INSERT
  5
2AF
100
AcDbEntity
  8
detail
 62
     0
370
     5
100
AcDbBlockReference
  2
*X12
 10
0.0
 20
0.0
 30
0.0
  0
INSERT
  5
2B0
100
AcDbEntity
  8
detail
 62
     0
370
     5
100
AcDbBlockReference
  2
*X13
 10
0.0
 20
0.0
 30
0.0
  0
INSERT
  5
2B1
100
AcDbEntity
  8
detail
 62
     0
370
     5
100
AcDbBlockReference
  2
*X14
 10
0.0
 20
0.0
 30
0.0
  0
INSERT
  5
2B2
100
AcDbEntity
  8
detail
 62
     0
370
     5
100
AcDbBlockReference
  2
*X15
 10
0.0
 20
0.0
 30
0.0
  0
INSERT
  5
2B3
100
AcDbEntity
  8
detail
 62
     0
370
     5
100
AcDbBlockReference
  2
*X16
 10
0.0
 20
0.0
 30
0.0
  0
INSERT
  5
2B4
100
AcDbEntity
  8
detail
 62
     0
370
     5
100
AcDbBlockReference
  2
*X17
 10
0.0
 20
0.0
 30
0.0
  0
INSERT
  5
2B5
100
AcDbEntity
  8
detail
 62
     0
370
     5
100
AcDbBlockReference
  2
*X18
 10
0.0
 20
0.0
 30
0.0
  0
INSERT
  5
2B6
100
AcDbEntity
  8
detail
 62
     0
370
     5
100
AcDbBlockReference
  2
*X19
 10
0.0
 20
0.0
 30
0.0
  0
INSERT
  5
2B7
100
AcDbEntity
  8
detail
 62
     0
370
     5
100
AcDbBlockReference
  2
*X20
 10
0.0
 20
0.0
 30
0.0
  0
3DFACE
  5
2B8
100
AcDbEntity
  8
detail
 62
    16
  6
CONTINUOUS
370
     5
100
AcDbFace
 70
     4
 10
18.56997911
 20
-55.26731656
 30
2.5
 11
18.56997911
 21
-55.24731656
 31
2.5
 12
19.43681402
 22
-55.24731656
 32
2.5
 13
19.43681402
 23
-55.26731656
 33
2.5
  0
3DFACE
  5
2B9
102
{ACAD_REACTORS
330
2BA
102
}
100
AcDbEntity
  8
detail
 62
    16
  6
CONTINUOUS
370
     5
100
AcDbFace
 70
     0
 10
18.56997911
 20
-55.17731656
 30
2.5
 11
18.54997911
 21
-55.17731656
 31
2.5
 12
18.54997911
 22
-55.26731656
 32
2.5
 13
18.56997911
 23
-55.26731656
 33
2.5
  0
HATCH
  5
2BA
100
AcDbEntity
  8
detail
 62
    16
  6
CONTINUOUS
100
AcDbHatch
 10
0.0
 20
0.0
 30
0.0
210
0.0
220
0.0
230
1.0
  2
ANSI31
 70
     0
 71
     1
 91
        1
 92
        7
 72
     0
 73
     1
 93
        4
 10
18.56997911
 20
-55.17731656
 10
18.54997911
 20
-55.17731656
 10
18.54997911
 20
-55.26731656
 10
18.56997911
 20
-55.26731656
 97
        1
330
2B9
 75
     0
 76
     2
 52
135.0
 41
0.00393703
 77
     0
 78
     1
 53
0.0
 43
0.0
 44
0.00625
 45
0.0
 46
0.0125
 79
     0
 47
0.775229
 98
        1
 10
0.0
 20
0.0
  0
LINE
  5
2BB
100
AcDbEntity
  8
detail
 62
    16
  6
CONTINUOUS
370
     5
100
AcDbLine
 10
18.43241061
 20
-55.73013893
 30
0.0
 11
18.43858784
 21
-55.72359356
 31
0.0
  0
LINE
  5
2BC
100
AcDbEntity
  8
detail
 62
    16
  6
CONTINUOUS
370
     5
100
AcDbLine
 10
18.38312524
 20
-55.69516512
 30
0.0
 11
18.43164574
 21
-55.74087629
 31
0.0
  0
LINE
  5
2BD
100
AcDbEntity
  8
detail
 62
    16
  6
CONTINUOUS
370
     5
100
AcDbLine
 10
18.39366932
 20
-55.69397033
 30
0.0
 11
18.43224649
 21
-55.73031283
 31
0.0
  0
LINE
  5
2BE
100
AcDbEntity
  8
detail
 62
    16
  6
CENTER
370
     5
100
AcDbLine
 10
18.3834988
 20
-55.73276019
 30
0.0
 11
18.4034988
 21
-55.73276019
 31
0.0
  0
LINE
  5
2BF
100
AcDbEntity
  8
detail
 62
    16
  6
CENTER
370
     5
100
AcDbLine
 10
18.3934988
 20
-55.74276019
 30
0.0
 11
18.3934988
 21
-55.72276019
 31
0.0
  0
LINE
  5
2C0
100
AcDbEntity
  8
detail
 62
    16
  6
CONTINUOUS
370
     5
100
AcDbLine
 10
18.42763431
 20
-55.78292459
 30
0.0
 11
18.42763431
 21
-55.77177548
 31
0.0
  0
LINE
  5
2C1
100
AcDbEntity
  8
detail
 62
    16
  6
CONTINUOUS
370
     5
100
AcDbLine
 10
18.31218473
 20
-55.64743868
 30
0.0
 11
18.31546616
 21
-55.64796497
 31
0.0
  0
LINE
  5
2C2
100
AcDbEntity
  8
detail
 62
    16
  6
CONTINUOUS
370
     5
100
AcDbLine
 10
18.45763431
 20
-55.78052943
 30
0.0
 11
18.45763431
 21
-55.78502943
 31
0.0
  0
LINE
  5
2C3
100
AcDbEntity
  8
detail
 62
    16
  6
CONTINUOUS
370
     5
100
AcDbLine
 10
18.39763431
 20
-55.78292459
 30
0.0
 11
18.39763431
 21
-55.77177548
 31
0.0
  0
LINE
  5
2C4
100
AcDbEntity
  8
detail
 62
    16
  6
CONTINUOUS
370
     5
100
AcDbLine
 10
18.39311404
 20
-55.77791053
 30
0.0
 11
18.40283377
 21
-55.77791053
 31
0.0
  0
LINE
  5
2C5
100
AcDbEntity
  8
detail
 62
    16
  6
CONTINUOUS
370
     5
100
AcDbLine
 10
18.42311404
 20
-55.77791053
 30
0.0
 11
18.43283377
 21
-55.77791053
 31
0.0
  0
LINE
  5
2C6
100
AcDbEntity
  8
detail
 62
    16
  6
CONTINUOUS
370
     5
100
AcDbLine
 10
18.31582543
 20
-55.82534637
 30
0.0
 11
18.31606005
 21
-55.82489048
 31
0.0
  0
LINE
  5
2C7
100
AcDbEntity
  8
detail
 62
    16
  6
CONTINUOUS
370
     5
100
AcDbLine
 10
18.31606005
 20
-55.82489048
 30
0.0
 11
18.31589444
 21
-55.82440525
 31
0.0
  0
LINE
  5
2C8
100
AcDbEntity
  8
detail
 62
    16
  6
CONTINUOUS
370
     5
100
AcDbLine
 10
18.31609075
 20
-55.82542001
 30
0.0
 11
18.31635224
 21
-55.82491191
 31
0.0
  0
LINE
  5
2C9
100
AcDbEntity
  8
detail
 62
    16
  6
CONTINUOUS
370
     5
100
AcDbLine
 10
18.31635224
 20
-55.82491191
 30
0.0
 11
18.31616767
 21
-55.8243711
 31
0.0
  0
LINE
  5
2CA
100
AcDbEntity
  8
detail
 62
    16
  6
CONTINUOUS
370
     5
100
AcDbLine
 10
18.31594568
 20
-55.83638815
 30
0.0
 11
18.31619014
 21
-55.83683883
 31
0.0
  0
LINE
  5
2CB
100
AcDbEntity
  8
detail
 62
    16
  6
CONTINUOUS
370
     5
100
AcDbLine
 10
18.31619014
 20
-55.83683883
 30
0.0
 11
18.31603511
 21
-55.83732755
 31
0.0
  0
LINE
  5
2CC
100
AcDbEntity
  8
detail
 62
    16
  6
CONTINUOUS
370
     5
100
AcDbLine
 10
18.3164818
 20
-55.83681107
 30
0.0
 11
18.31630901
 21
-55.83735576
 31
0.0
  0
LINE
  5
2CD
100
AcDbEntity
  8
detail
 62
    16
  6
CONTINUOUS
370
     5
100
AcDbLine
 10
18.31620934
 20
-55.83630876
 30
0.0
 11
18.3164818
 21
-55.83681107
 31
0.0
  0
LINE
  5
2CE
100
AcDbEntity
  8
detail
 62
    16
  6
CONTINUOUS
370
     5
100
AcDbLine
 10
18.32852514
 20
-55.68240807
 30
0.0
 11
18.32870624
 21
-55.68140383
 31
0.0
  0
LINE
  5
2CF
100
AcDbEntity
  8
detail
 62
    16
  6
CONTINUOUS
370
     5
100
AcDbLine
 10
18.32807929
 20
-55.68541144
 30
0.0
 11
18.32872663
 21
-55.68477127
 31
0.0
  0
LINE
  5
2D0
100
AcDbEntity
  8
detail
 62
    16
  6
CONTINUOUS
370
     5
100
AcDbLine
 10
18.33342209
 20
-55.6819997
 30
0.0
 11
18.33310609
 21
-55.68151414
 31
0.0
  0
LINE
  5
2D1
100
AcDbEntity
  8
detail
 62
    16
  6
CONTINUOUS
370
     5
100
AcDbLine
 10
18.31787284
 20
-55.81321539
 30
0.0
 11
18.31863783
 21
-55.8127435
 31
0.0
  0
LINE
  5
2D2
100
AcDbEntity
  8
detail
 62
    16
  6
CONTINUOUS
370
     5
100
AcDbLine
 10
18.31879769
 20
-55.8124689
 30
0.0
 11
18.31896382
 21
-55.8078931
 31
0.0
  0
LINE
  5
2D3
100
AcDbEntity
  8
detail
 62
    16
  6
CONTINUOUS
370
     5
100
AcDbLine
 10
18.32190753
 20
-55.80852814
 30
0.0
 11
18.32192752
 21
-55.80800281
 31
0.0
  0
LINE
  5
2D4
100
AcDbEntity
  8
detail
 62
    16
  6
CONTINUOUS
370
     5
100
AcDbLine
 10
18.32256453
 20
-55.80849402
 30
0.0
 11
18.32245765
 21
-55.80774532
 31
0.0
  0
LINE
  5
2D5
100
AcDbEntity
  8
detail
 62
    16
  6
CONTINUOUS
370
     5
100
AcDbLine
 10
18.3222976
 20
-55.80853194
 30
0.0
 11
18.32218249
 21
-55.80774268
 31
0.0
  0
LINE
  5
2D6
100
AcDbEntity
  8
detail
 62
    16
  6
CONTINUOUS
370
     5
100
AcDbLine
 10
18.32217692
 20
-55.80853976
 30
0.0
 11
18.32218853
 21
-55.80779101
 31
0.0
  0
LINE
  5
2D7
100
AcDbEntity
  8
detail
 62
    16
  6
CONTINUOUS
370
     5
100
AcDbLine
 10
18.31964404
 20
-55.81171975
 30
0.0
 11
18.31950276
 21
-55.80800276
 31
0.0
  0
LINE
  5
2D8
100
AcDbEntity
  8
detail
 62
    16
  6
CONTINUOUS
370
     5
100
AcDbLine
 10
18.31937462
 20
-55.81172999
 30
0.0
 11
18.31923125
 21
-55.80795794
 31
0.0
  0
LINE
  5
2D9
100
AcDbEntity
  8
detail
 62
    16
  6
CONTINUOUS
370
     5
100
AcDbLine
 10
18.31906712
 20
-55.81247868
 30
0.0
 11
18.31923325
 21
-55.80790288
 31
0.0
  0
LINE
  5
2DA
100
AcDbEntity
  8
detail
 62
    16
  6
CONTINUOUS
370
     5
100
AcDbLine
 10
18.31801439
 20
-55.81344486
 30
0.0
 11
18.31877937
 21
-55.81297297
 31
0.0
  0
LINE
  5
2DB
100
AcDbEntity
  8
detail
 62
    16
  6
CONTINUOUS
370
     5
100
AcDbLine
 10
18.31899503
 20
-55.84933302
 30
0.0
 11
18.31908717
 21
-55.84411871
 31
0.0
  0
LINE
  5
2DC
100
AcDbEntity
  8
detail
 62
    16
  6
CONTINUOUS
370
     5
100
AcDbLine
 10
18.31872546
 20
-55.84932826
 30
0.0
 11
18.3188176
 21
-55.84411395
 31
0.0
  0
LINE
  5
2DD
100
AcDbEntity
  8
detail
 62
    16
  6
CONTINUOUS
370
     5
100
AcDbLine
 10
18.31987905
 20
-55.81202823
 30
0.0
 11
18.32125568
 21
-55.81246426
 31
0.0
  0
LINE
  5
2DE
100
AcDbEntity
  8
detail
 62
    16
  6
CONTINUOUS
370
     5
100
AcDbLine
 10
18.31979764
 20
-55.81228526
 30
0.0
 11
18.32117427
 21
-55.81272129
 31
0.0
  0
LINE
  5
2DF
100
AcDbEntity
  8
detail
 62
    16
  6
CONTINUOUS
370
     5
100
AcDbLine
 10
18.32078535
 20
-55.84977849
 30
0.0
 11
18.32020159
 21
-55.8494681
 31
0.0
  0
LINE
  5
2E0
100
AcDbEntity
  8
detail
 62
    16
  6
CONTINUOUS
370
     5
100
AcDbLine
 10
18.32094394
 20
-55.84954092
 30
0.0
 11
18.32036017
 21
-55.84923054
 31
0.0
  0
LINE
  5
2E1
100
AcDbEntity
  8
detail
 62
    16
  6
CONTINUOUS
370
     5
100
AcDbLine
 10
18.32365911
 20
-55.84424071
 30
0.0
 11
18.32361288
 21
-55.84777728
 31
0.0
  0
LINE
  5
2E2
100
AcDbEntity
  8
detail
 62
    16
  6
CONTINUOUS
370
     5
100
AcDbLine
 10
18.32149515
 20
-55.84924161
 30
0.0
 11
18.32144524
 21
-55.8493799
 31
0.0
  0
LINE
  5
2E3
100
AcDbEntity
  8
detail
 62
    16
  6
CONTINUOUS
370
     5
100
AcDbLine
 10
18.32110255
 20
-55.84930331
 30
0.0
 11
18.32044113
 21
-55.84897337
 31
0.0
  0
LINE
  5
2E4
100
AcDbEntity
  8
detail
 62
    16
  6
CONTINUOUS
370
     5
100
AcDbLine
 10
18.32338952
 20
-55.84423719
 30
0.0
 11
18.32332815
 21
-55.84779987
 31
0.0
  0
LINE
  5
2E5
100
AcDbEntity
  8
detail
 62
    16
  6
CONTINUOUS
370
     5
100
AcDbLine
 10
18.32332815
 20
-55.84779987
 30
0.0
 11
18.3232639
 21
-55.84423645
 31
0.0
  0
LINE
  5
2E6
100
AcDbEntity
  8
detail
 62
    16
  6
CONTINUOUS
370
     5
100
AcDbLine
 10
18.32304335
 20
-55.84782246
 30
0.0
 11
18.32299431
 21
-55.84424014
 31
0.0
  0
LINE
  5
2E7
100
AcDbEntity
  8
detail
 62
    16
  6
CONTINUOUS
370
     5
100
AcDbLine
 10
18.32059904
 20
-55.84877317
 30
0.0
 11
18.32149515
 21
-55.84924161
 31
0.0
  0
LINE
  5
2E8
100
AcDbEntity
  8
detail
 62
    16
  6
CONTINUOUS
370
     5
100
AcDbLine
 10
18.3309791
 20
-55.80334692
 30
0.0
 11
18.32981404
 21
-55.80334692
 31
0.0
  0
LINE
  5
2E9
100
AcDbEntity
  8
detail
 62
    16
  6
CONTINUOUS
370
     5
100
AcDbLine
 10
18.34737579
 20
-55.6974078
 30
0.0
 11
18.44388562
 21
-55.6974078
 31
0.0
  0
LINE
  5
2EA
100
AcDbEntity
  8
detail
 62
    16
  6
CONTINUOUS
370
     5
100
AcDbLine
 10
18.45615664
 20
-55.71359828
 30
0.0
 11
18.45615664
 21
-55.67255869
 31
0.0
  0
LINE
  5
2EB
100
AcDbEntity
  8
detail
 62
    16
  6
CONTINUOUS
370
     5
100
AcDbLine
 10
18.45615664
 20
-55.78381315
 30
0.0
 11
18.45615664
 21
-55.7519221
 31
0.0
  0
LINE
  5
2EC
100
AcDbEntity
  8
detail
 62
    16
  6
CONTINUOUS
370
     5
100
AcDbLine
 10
18.34737579
 20
-55.69201893
 30
0.0
 11
18.44388562
 21
-55.69201893
 31
0.0
  0
LINE
  5
2ED
100
AcDbEntity
  8
detail
 62
    16
  6
CONTINUOUS
370
     5
100
AcDbLine
 10
18.3099791
 20
-55.64992463
 30
0.0
 11
18.3099791
 21
-55.82751096
 31
0.0
  0
LINE
  5
2EE
100
AcDbEntity
  8
detail
 62
    16
  6
CONTINUOUS
370
     5
100
AcDbLine
 10
18.31065856
 20
-55.83276019
 30
0.0
 11
18.31568088
 21
-55.83276019
 31
0.0
  0
LINE
  5
2EF
100
AcDbEntity
  8
detail
 62
    16
  6
CONTINUOUS
370
     5
100
AcDbLine
 10
18.34737579
 20
-55.76279848
 30
0.0
 11
18.44388562
 21
-55.76279848
 31
0.0
  0
LINE
  5
2F0
100
AcDbEntity
  8
detail
 62
    16
  6
CONTINUOUS
370
     5
100
AcDbLine
 10
18.31591605
 20
-55.66743862
 30
0.0
 11
18.31591605
 21
-55.68460596
 31
0.0
  0
LINE
  5
2F1
100
AcDbEntity
  8
detail
 62
    16
  6
CONTINUOUS
370
     5
100
AcDbLine
 10
18.3159466
 20
-55.70533413
 30
0.0
 11
18.31623762
 21
-55.70491201
 31
0.0
  0
LINE
  5
2F2
100
AcDbEntity
  8
detail
 62
    16
  6
CONTINUOUS
370
     5
100
AcDbLine
 10
18.31623762
 20
-55.70491201
 30
0.0
 11
18.31613546
 21
-55.70440958
 31
0.0
  0
LINE
  5
2F3
100
AcDbEntity
  8
detail
 62
    16
  6
CONTINUOUS
370
     5
100
AcDbLine
 10
18.31620032
 20
-55.70544111
 30
0.0
 11
18.31652467
 21
-55.70497064
 31
0.0
  0
LINE
  5
2F4
100
AcDbEntity
  8
detail
 62
    16
  6
CONTINUOUS
370
     5
100
AcDbLine
 10
18.31652467
 20
-55.70497064
 30
0.0
 11
18.31641081
 21
-55.70441066
 31
0.0
  0
LINE
  5
2F5
100
AcDbEntity
  8
detail
 62
    16
  6
CONTINUOUS
370
     5
100
AcDbLine
 10
18.31465317
 20
-55.71630056
 30
0.0
 11
18.31483797
 21
-55.71677881
 31
0.0
  0
LINE
  5
2F6
100
AcDbEntity
  8
detail
 62
    16
  6
CONTINUOUS
370
     5
100
AcDbLine
 10
18.31483797
 20
-55.71677881
 30
0.0
 11
18.31462168
 21
-55.71724367
 31
0.0
  0
LINE
  5
2F7
100
AcDbEntity
  8
detail
 62
    16
  6
CONTINUOUS
370
     5
100
AcDbLine
 10
18.31513078
 20
-55.71678859
 30
0.0
 11
18.31488972
 21
-55.71730669
 31
0.0
  0
LINE
  5
2F8
100
AcDbEntity
  8
detail
 62
    16
  6
CONTINUOUS
370
     5
100
AcDbLine
 10
18.31492482
 20
-55.71625555
 30
0.0
 11
18.31513078
 21
-55.71678859
 31
0.0
  0
LINE
  5
2F9
100
AcDbEntity
  8
detail
 62
    16
  6
CONTINUOUS
370
     5
100
AcDbLine
 10
18.31952923
 20
-55.6935648
 30
0.0
 11
18.32034831
 21
-55.69319466
 31
0.0
  0
LINE
  5
2FA
100
AcDbEntity
  8
detail
 62
    16
  6
CONTINUOUS
370
     5
100
AcDbLine
 10
18.32054199
 20
-55.69294276
 30
0.0
 11
18.32129218
 21
-55.68842582
 31
0.0
  0
LINE
  5
2FB
100
AcDbEntity
  8
detail
 62
    16
  6
CONTINUOUS
370
     5
100
AcDbLine
 10
18.32413046
 20
-55.68943227
 30
0.0
 11
18.3242175
 21
-55.68891381
 31
0.0
  0
LINE
  5
2FC
100
AcDbEntity
  8
detail
 62
    16
  6
CONTINUOUS
370
     5
100
AcDbLine
 10
18.32478642
 20
-55.68948249
 30
0.0
 11
18.32477621
 21
-55.68872626
 31
0.0
  0
LINE
  5
2FD
100
AcDbEntity
  8
detail
 62
    16
  6
CONTINUOUS
370
     5
100
AcDbLine
 10
18.32451683
 20
-55.68948594
 30
0.0
 11
18.32450365
 21
-55.68868844
 31
0.0
  0
LINE
  5
2FE
100
AcDbEntity
  8
detail
 62
    16
  6
CONTINUOUS
370
     5
100
AcDbLine
 10
18.32439614
 20
-55.68947825
 30
0.0
 11
18.32450345
 21
-55.68873714
 31
0.0
  0
LINE
  5
2FF
100
AcDbEntity
  8
detail
 62
    16
  6
CONTINUOUS
370
     5
100
AcDbLine
 10
18.32147723
 20
-55.69230805
 30
0.0
 11
18.32181267
 21
-55.68860354
 31
0.0
  0
LINE
  5
300
100
AcDbEntity
  8
detail
 62
    16
  6
CONTINUOUS
370
     5
100
AcDbLine
 10
18.32120872
 20
-55.69228374
 30
0.0
 11
18.32154913
 21
-55.68852435
 31
0.0
  0
LINE
  5
301
100
AcDbEntity
  8
detail
 62
    16
  6
CONTINUOUS
370
     5
100
AcDbLine
 10
18.32080795
 20
-55.69298694
 30
0.0
 11
18.32155815
 21
-55.68847
 31
0.0
  0
LINE
  5
302
100
AcDbEntity
  8
detail
 62
    16
  6
CONTINUOUS
370
     5
100
AcDbLine
 10
18.31964026
 20
-55.69381049
 30
0.0
 11
18.32045933
 21
-55.69344035
 31
0.0
  0
LINE
  5
303
100
AcDbEntity
  8
detail
 62
    16
  6
CONTINUOUS
370
     5
100
AcDbLine
 10
18.31602128
 20
-55.72952918
 30
0.0
 11
18.3167798
 21
-55.72436951
 31
0.0
  0
LINE
  5
304
100
AcDbEntity
  8
detail
 62
    16
  6
CONTINUOUS
370
     5
100
AcDbLine
 10
18.31575454
 20
-55.72948997
 30
0.0
 11
18.31651305
 21
-55.7243303
 31
0.0
  0
LINE
  5
305
100
AcDbEntity
  8
detail
 62
    16
  6
CONTINUOUS
370
     5
100
AcDbLine
 10
18.32167084
 20
-55.69264407
 30
0.0
 11
18.32298037
 21
-55.69325264
 31
0.0
  0
LINE
  5
306
100
AcDbEntity
  8
detail
 62
    16
  6
CONTINUOUS
370
     5
100
AcDbLine
 10
18.32155722
 20
-55.69288857
 30
0.0
 11
18.32286675
 21
-55.69349714
 31
0.0
  0
LINE
  5
307
100
AcDbEntity
  8
detail
 62
    16
  6
CONTINUOUS
370
     5
100
AcDbLine
 10
18.3177399
 20
-55.73020004
 30
0.0
 11
18.31720065
 21
-55.72981752
 31
0.0
  0
LINE
  5
308
100
AcDbEntity
  8
detail
 62
    16
  6
CONTINUOUS
370
     5
100
AcDbLine
 10
18.31792758
 20
-55.72998472
 30
0.0
 11
18.31738832
 21
-55.7296022
 31
0.0
  0
LINE
  5
309
100
AcDbEntity
  8
detail
 62
    16
  6
CONTINUOUS
370
     5
100
AcDbLine
 10
18.32129855
 20
-55.72507545
 30
0.0
 11
18.32080023
 21
-55.72857704
 31
0.0
  0
LINE
  5
30A
100
AcDbEntity
  8
detail
 62
    16
  6
CONTINUOUS
370
     5
100
AcDbLine
 10
18.31851256
 20
-55.72975839
 30
0.0
 11
18.31844536
 21
-55.72988915
 31
0.0
  0
LINE
  5
30B
100
AcDbEntity
  8
detail
 62
    16
  6
CONTINUOUS
370
     5
100
AcDbLine
 10
18.31811529
 20
-55.72976935
 30
0.0
 11
18.31750152
 21
-55.7293575
 31
0.0
  0
LINE
  5
30C
100
AcDbEntity
  8
detail
 62
    16
  6
CONTINUOUS
370
     5
100
AcDbLine
 10
18.32103162
 20
-55.72503746
 30
0.0
 11
18.32051495
 21
-55.72856301
 31
0.0
  0
LINE
  5
30D
100
AcDbEntity
  8
detail
 62
    16
  6
CONTINUOUS
370
     5
100
AcDbLine
 10
18.32051495
 20
-55.72856301
 30
0.0
 11
18.32090713
 21
-55.72502066
 31
0.0
  0
LINE
  5
30E
100
AcDbEntity
  8
detail
 62
    16
  6
CONTINUOUS
370
     5
100
AcDbLine
 10
18.3202296
 20
-55.72854897
 30
0.0
 11
18.32063929
 21
-55.72498983
 31
0.0
  0
LINE
  5
30F
100
AcDbEntity
  8
detail
 62
    16
  6
CONTINUOUS
370
     5
100
AcDbLine
 10
18.31768374
 20
-55.72917914
 30
0.0
 11
18.31851256
 21
-55.72975839
 31
0.0
  0
LINE
  5
310
100
AcDbEntity
  8
detail
 62
    16
  6
CONTINUOUS
370
     5
100
AcDbLine
 10
18.34737579
 20
-55.78060496
 30
0.0
 11
18.44388562
 21
-55.78060496
 31
0.0
  0
LINE
  5
311
100
AcDbEntity
  8
detail
 62
    16
  6
CONTINUOUS
370
     5
100
AcDbLine
 10
18.31542435
 20
-55.65210578
 30
0.0
 11
18.32504248
 21
-55.66190106
 31
0.0
  0
LINE
  5
312
100
AcDbEntity
  8
detail
 62
    16
  6
CONTINUOUS
370
     5
100
AcDbLine
 10
18.34737579
 20
-55.75740961
 30
0.0
 11
18.44388562
 21
-55.75740961
 31
0.0
  0
LINE
  5
313
100
AcDbEntity
  8
detail
 62
    16
  6
CONTINUOUS
370
     5
100
AcDbLine
 10
18.31546616
 20
-55.64796497
 30
0.0
 11
18.3271332
 21
-55.65984306
 31
0.0
  0
LINE
  5
314
100
AcDbEntity
  8
detail
 62
    16
  6
CONTINUOUS
370
     5
100
AcDbLine
 10
18.34737579
 20
-55.71871835
 30
0.0
 11
18.45103657
 21
-55.71871835
 31
0.0
  0
LINE
  5
315
100
AcDbEntity
  8
detail
 62
    16
  6
CONTINUOUS
370
     5
100
AcDbLine
 10
18.34737579
 20
-55.74680203
 30
0.0
 11
18.45103657
 21
-55.74680203
 31
0.0
  0
LINE
  5
316
100
AcDbEntity
  8
detail
 62
    16
  6
CONTINUOUS
370
     5
100
AcDbLine
 10
18.45103657
 20
-55.66743862
 30
0.0
 11
18.31591605
 21
-55.66743862
 31
0.0
  0
LINE
  5
317
100
AcDbEntity
  8
detail
 62
    16
  6
CONTINUOUS
370
     5
100
AcDbLine
 10
18.33662583
 20
-55.78893322
 30
0.0
 11
18.45103657
 21
-55.78893322
 31
0.0
  0
LINE
  5
318
100
AcDbEntity
  8
detail
 62
    16
  6
CONTINUOUS
370
     5
100
AcDbLine
 10
18.34737579
 20
-55.77521609
 30
0.0
 11
18.44388562
 21
-55.77521609
 31
0.0
  0
LINE
  5
319
100
AcDbEntity
  8
detail
 62
    16
  6
CONTINUOUS
370
     5
100
AcDbLine
 10
18.32504248
 20
-55.66190106
 30
0.0
 11
18.3271332
 21
-55.65984306
 31
0.0
  0
LINE
  5
31A
100
AcDbEntity
  8
detail
 62
    16
  6
CONTINUOUS
370
     5
100
AcDbLine
 10
18.31320159
 20
-55.74565369
 30
0.0
 11
18.31343621
 21
-55.74519781
 31
0.0
  0
LINE
  5
31B
100
AcDbEntity
  8
detail
 62
    16
  6
CONTINUOUS
370
     5
100
AcDbLine
 10
18.31343621
 20
-55.74519781
 30
0.0
 11
18.31327061
 21
-55.74471258
 31
0.0
  0
LINE
  5
31C
100
AcDbEntity
  8
detail
 62
    16
  6
CONTINUOUS
370
     5
100
AcDbLine
 10
18.31346691
 20
-55.74572734
 30
0.0
 11
18.31372841
 21
-55.74521924
 31
0.0
  0
LINE
  5
31D
100
AcDbEntity
  8
detail
 62
    16
  6
CONTINUOUS
370
     5
100
AcDbLine
 10
18.31372841
 20
-55.74521924
 30
0.0
 11
18.31354383
 21
-55.74467843
 31
0.0
  0
LINE
  5
31E
100
AcDbEntity
  8
detail
 62
    16
  6
CONTINUOUS
370
     5
100
AcDbLine
 10
18.31332184
 20
-55.75669548
 30
0.0
 11
18.31356631
 21
-55.75714616
 31
0.0
  0
LINE
  5
31F
100
AcDbEntity
  8
detail
 62
    16
  6
CONTINUOUS
370
     5
100
AcDbLine
 10
18.31356631
 20
-55.75714616
 30
0.0
 11
18.31341127
 21
-55.75763487
 31
0.0
  0
LINE
  5
320
100
AcDbEntity
  8
detail
 62
    16
  6
CONTINUOUS
370
     5
100
AcDbLine
 10
18.31385797
 20
-55.75711839
 30
0.0
 11
18.31368518
 21
-55.75766308
 31
0.0
  0
LINE
  5
321
100
AcDbEntity
  8
detail
 62
    16
  6
CONTINUOUS
370
     5
100
AcDbLine
 10
18.3135855
 20
-55.75661609
 30
0.0
 11
18.31385797
 21
-55.75711839
 31
0.0
  0
LINE
  5
322
100
AcDbEntity
  8
detail
 62
    16
  6
CONTINUOUS
370
     5
100
AcDbLine
 10
18.315249
 20
-55.73352272
 30
0.0
 11
18.31601399
 21
-55.73305083
 31
0.0
  0
LINE
  5
323
100
AcDbEntity
  8
detail
 62
    16
  6
CONTINUOUS
370
     5
100
AcDbLine
 10
18.31617385
 20
-55.73277622
 30
0.0
 11
18.31633998
 21
-55.72820042
 31
0.0
  0
LINE
  5
324
100
AcDbEntity
  8
detail
 62
    16
  6
CONTINUOUS
370
     5
100
AcDbLine
 10
18.3192837
 20
-55.72883546
 30
0.0
 11
18.31930369
 21
-55.72831014
 31
0.0
  0
LINE
  5
325
100
AcDbEntity
  8
detail
 62
    16
  6
CONTINUOUS
370
     5
100
AcDbLine
 10
18.31994069
 20
-55.72880135
 30
0.0
 11
18.31983381
 21
-55.72805264
 31
0.0
  0
LINE
  5
326
100
AcDbEntity
  8
detail
 62
    16
  6
CONTINUOUS
370
     5
100
AcDbLine
 10
18.31967376
 20
-55.72883927
 30
0.0
 11
18.31955865
 21
-55.72805
 31
0.0
  0
LINE
  5
327
100
AcDbEntity
  8
detail
 62
    16
  6
CONTINUOUS
370
     5
100
AcDbLine
 10
18.31955308
 20
-55.72884708
 30
0.0
 11
18.31956469
 21
-55.72809833
 31
0.0
  0
LINE
  5
328
100
AcDbEntity
  8
detail
 62
    16
  6
CONTINUOUS
370
     5
100
AcDbLine
 10
18.3170202
 20
-55.73202707
 30
0.0
 11
18.31687893
 21
-55.72831009
 31
0.0
  0
LINE
  5
329
100
AcDbEntity
  8
detail
 62
    16
  6
CONTINUOUS
370
     5
100
AcDbLine
 10
18.31440297
 20
-55.78589329
 30
0.0
 11
18.31461413
 21
-55.78542608
 31
0.0
  0
LINE
  5
32A
100
AcDbEntity
  8
detail
 62
    16
  6
CONTINUOUS
370
     5
100
AcDbLine
 10
18.32272101
 20
-55.69091321
 30
0.0
 11
18.32234321
 21
-55.69023078
 31
0.0
  0
LINE
  5
32B
100
AcDbEntity
  8
detail
 62
    16
  6
CONTINUOUS
370
     5
100
AcDbLine
 10
18.32249482
 20
-55.68922011
 30
0.0
 11
18.3228328
 21
-55.68889408
 31
0.0
  0
LINE
  5
32C
100
AcDbEntity
  8
detail
 62
    16
  6
CONTINUOUS
370
     5
100
AcDbLine
 10
18.3231002
 20
-55.68908858
 30
0.0
 11
18.32281273
 21
-55.68967717
 31
0.0
  0
LINE
  5
32D
100
AcDbEntity
  8
detail
 62
    16
  6
CONTINUOUS
370
     5
100
AcDbLine
 10
18.32281936
 20
-55.68993547
 30
0.0
 11
18.32297786
 21
-55.69022179
 31
0.0
  0
LINE
  5
32E
100
AcDbEntity
  8
detail
 62
    16
  6
CONTINUOUS
370
     5
100
AcDbLine
 10
18.32272101
 20
-55.69091321
 30
0.0
 11
18.32234321
 21
-55.69023078
 31
0.0
  0
LINE
  5
32F
100
AcDbEntity
  8
detail
 62
    16
  6
CONTINUOUS
370
     5
100
AcDbLine
 10
18.32249482
 20
-55.68922011
 30
0.0
 11
18.3228328
 21
-55.68889408
 31
0.0
  0
LINE
  5
330
100
AcDbEntity
  8
detail
 62
    16
  6
CONTINUOUS
370
     5
100
AcDbLine
 10
18.3231002
 20
-55.68908858
 30
0.0
 11
18.32281273
 21
-55.68967717
 31
0.0
  0
LINE
  5
331
100
AcDbEntity
  8
detail
 62
    16
  6
CONTINUOUS
370
     5
100
AcDbLine
 10
18.32281936
 20
-55.68993547
 30
0.0
 11
18.32297786
 21
-55.69022179
 31
0.0
  0
LINE
  5
332
100
AcDbEntity
  8
detail
 62
    16
  6
CONTINUOUS
370
     5
100
AcDbLine
 10
18.32272101
 20
-55.69091321
 30
0.0
 11
18.32234321
 21
-55.69023078
 31
0.0
  0
LINE
  5
333
100
AcDbEntity
  8
detail
 62
    16
  6
CONTINUOUS
370
     5
100
AcDbLine
 10
18.32249482
 20
-55.68922011
 30
0.0
 11
18.3228328
 21
-55.68889408
 31
0.0
  0
LINE
  5
334
100
AcDbEntity
  8
detail
 62
    16
  6
CONTINUOUS
370
     5
100
AcDbLine
 10
18.3231002
 20
-55.68908858
 30
0.0
 11
18.32281273
 21
-55.68967717
 31
0.0
  0
LINE
  5
335
100
AcDbEntity
  8
detail
 62
    16
  6
CONTINUOUS
370
     5
100
AcDbLine
 10
18.32281936
 20
-55.68993547
 30
0.0
 11
18.32297786
 21
-55.69022179
 31
0.0
  0
LINE
  5
336
100
AcDbEntity
  8
detail
 62
    16
  6
CONTINUOUS
370
     5
100
AcDbLine
 10
18.32272101
 20
-55.69091321
 30
0.0
 11
18.32234321
 21
-55.69023078
 31
0.0
  0
LINE
  5
337
100
AcDbEntity
  8
detail
 62
    16
  6
CONTINUOUS
370
     5
100
AcDbLine
 10
18.32249482
 20
-55.68922011
 30
0.0
 11
18.3228328
 21
-55.68889408
 31
0.0
  0
LINE
  5
338
100
AcDbEntity
  8
detail
 62
    16
  6
CONTINUOUS
370
     5
100
AcDbLine
 10
18.3231002
 20
-55.68908858
 30
0.0
 11
18.32281273
 21
-55.68967717
 31
0.0
  0
LINE
  5
339
100
AcDbEntity
  8
detail
 62
    16
  6
CONTINUOUS
370
     5
100
AcDbLine
 10
18.32281936
 20
-55.68993547
 30
0.0
 11
18.32297786
 21
-55.69022179
 31
0.0
  0
LINE
  5
33A
100
AcDbEntity
  8
detail
 62
    16
  6
CONTINUOUS
370
     5
100
AcDbLine
 10
18.32272101
 20
-55.69091321
 30
0.0
 11
18.32234321
 21
-55.69023078
 31
0.0
  0
LINE
  5
33B
100
AcDbEntity
  8
detail
 62
    16
  6
CONTINUOUS
370
     5
100
AcDbLine
 10
18.32249482
 20
-55.68922011
 30
0.0
 11
18.3228328
 21
-55.68889408
 31
0.0
  0
LINE
  5
33C
100
AcDbEntity
  8
detail
 62
    16
  6
CONTINUOUS
370
     5
100
AcDbLine
 10
18.3231002
 20
-55.68908858
 30
0.0
 11
18.32281273
 21
-55.68967717
 31
0.0
  0
LINE
  5
33D
100
AcDbEntity
  8
detail
 62
    16
  6
CONTINUOUS
370
     5
100
AcDbLine
 10
18.32281936
 20
-55.68993547
 30
0.0
 11
18.32297786
 21
-55.69022179
 31
0.0
  0
LINE
  5
33E
100
AcDbEntity
  8
detail
 62
    16
  6
CONTINUOUS
370
     5
100
AcDbLine
 10
18.32272101
 20
-55.69091321
 30
0.0
 11
18.32234321
 21
-55.69023078
 31
0.0
  0
LINE
  5
33F
100
AcDbEntity
  8
detail
 62
    16
  6
CONTINUOUS
370
     5
100
AcDbLine
 10
18.32249482
 20
-55.68922011
 30
0.0
 11
18.3228328
 21
-55.68889408
 31
0.0
  0
LINE
  5
340
100
AcDbEntity
  8
detail
 62
    16
  6
CONTINUOUS
370
     5
100
AcDbLine
 10
18.3231002
 20
-55.68908858
 30
0.0
 11
18.32281273
 21
-55.68967717
 31
0.0
  0
LINE
  5
341
100
AcDbEntity
  8
detail
 62
    16
  6
CONTINUOUS
370
     5
100
AcDbLine
 10
18.32281936
 20
-55.68993547
 30
0.0
 11
18.32297786
 21
-55.69022179
 31
0.0
  0
LINE
  5
342
100
AcDbEntity
  8
detail
 62
    16
  6
CONTINUOUS
370
     5
100
AcDbLine
 10
18.32272101
 20
-55.69091321
 30
0.0
 11
18.32234321
 21
-55.69023078
 31
0.0
  0
LINE
  5
343
100
AcDbEntity
  8
detail
 62
    16
  6
CONTINUOUS
370
     5
100
AcDbLine
 10
18.32249482
 20
-55.68922011
 30
0.0
 11
18.3228328
 21
-55.68889408
 31
0.0
  0
LINE
  5
344
100
AcDbEntity
  8
detail
 62
    16
  6
CONTINUOUS
370
     5
100
AcDbLine
 10
18.3231002
 20
-55.68908858
 30
0.0
 11
18.32281273
 21
-55.68967717
 31
0.0
  0
LINE
  5
345
100
AcDbEntity
  8
detail
 62
    16
  6
CONTINUOUS
370
     5
100
AcDbLine
 10
18.32281936
 20
-55.68993547
 30
0.0
 11
18.32297786
 21
-55.69022179
 31
0.0
  0
LINE
  5
346
100
AcDbEntity
  8
detail
 62
    16
  6
CONTINUOUS
370
     5
100
AcDbLine
 10
18.32272101
 20
-55.69091321
 30
0.0
 11
18.32234321
 21
-55.69023078
 31
0.0
  0
LINE
  5
347
100
AcDbEntity
  8
detail
 62
    16
  6
CONTINUOUS
370
     5
100
AcDbLine
 10
18.32249482
 20
-55.68922011
 30
0.0
 11
18.3228328
 21
-55.68889408
 31
0.0
  0
LINE
  5
348
100
AcDbEntity
  8
detail
 62
    16
  6
CONTINUOUS
370
     5
100
AcDbLine
 10
18.3231002
 20
-55.68908858
 30
0.0
 11
18.32281273
 21
-55.68967717
 31
0.0
  0
LINE
  5
349
100
AcDbEntity
  8
detail
 62
    16
  6
CONTINUOUS
370
     5
100
AcDbLine
 10
18.32281936
 20
-55.68993547
 30
0.0
 11
18.32297786
 21
-55.69022179
 31
0.0
  0
LINE
  5
34A
100
AcDbEntity
  8
detail
 62
    16
  6
CONTINUOUS
370
     5
100
AcDbLine
 10
18.32272101
 20
-55.69091321
 30
0.0
 11
18.32234321
 21
-55.69023078
 31
0.0
  0
LINE
  5
34B
100
AcDbEntity
  8
detail
 62
    16
  6
CONTINUOUS
370
     5
100
AcDbLine
 10
18.32249482
 20
-55.68922011
 30
0.0
 11
18.3228328
 21
-55.68889408
 31
0.0
  0
LINE
  5
34C
100
AcDbEntity
  8
detail
 62
    16
  6
CONTINUOUS
370
     5
100
AcDbLine
 10
18.3231002
 20
-55.68908858
 30
0.0
 11
18.32281273
 21
-55.68967717
 31
0.0
  0
LINE
  5
34D
100
AcDbEntity
  8
detail
 62
    16
  6
CONTINUOUS
370
     5
100
AcDbLine
 10
18.32281936
 20
-55.68993547
 30
0.0
 11
18.32297786
 21
-55.69022179
 31
0.0
  0
LINE
  5
34E
100
AcDbEntity
  8
detail
 62
    16
  6
CONTINUOUS
370
     5
100
AcDbLine
 10
18.32272101
 20
-55.69091321
 30
0.0
 11
18.32234321
 21
-55.69023078
 31
0.0
  0
LINE
  5
34F
100
AcDbEntity
  8
detail
 62
    16
  6
CONTINUOUS
370
     5
100
AcDbLine
 10
18.32249482
 20
-55.68922011
 30
0.0
 11
18.3228328
 21
-55.68889408
 31
0.0
  0
LINE
  5
350
100
AcDbEntity
  8
detail
 62
    16
  6
CONTINUOUS
370
     5
100
AcDbLine
 10
18.3231002
 20
-55.68908858
 30
0.0
 11
18.32281273
 21
-55.68967717
 31
0.0
  0
LINE
  5
351
100
AcDbEntity
  8
detail
 62
    16
  6
CONTINUOUS
370
     5
100
AcDbLine
 10
18.32281936
 20
-55.68993547
 30
0.0
 11
18.32297786
 21
-55.69022179
 31
0.0
  0
LINE
  5
352
100
AcDbEntity
  8
detail
 62
    16
  6
CONTINUOUS
370
     5
100
AcDbLine
 10
18.32272101
 20
-55.69091321
 30
0.0
 11
18.32234321
 21
-55.69023078
 31
0.0
  0
LINE
  5
353
100
AcDbEntity
  8
detail
 62
    16
  6
CONTINUOUS
370
     5
100
AcDbLine
 10
18.32249482
 20
-55.68922011
 30
0.0
 11
18.3228328
 21
-55.68889408
 31
0.0
  0
LINE
  5
354
100
AcDbEntity
  8
detail
 62
    16
  6
CONTINUOUS
370
     5
100
AcDbLine
 10
18.3231002
 20
-55.68908858
 30
0.0
 11
18.32281273
 21
-55.68967717
 31
0.0
  0
LINE
  5
355
100
AcDbEntity
  8
detail
 62
    16
  6
CONTINUOUS
370
     5
100
AcDbLine
 10
18.32281936
 20
-55.68993547
 30
0.0
 11
18.32297786
 21
-55.69022179
 31
0.0
  0
LINE
  5
356
100
AcDbEntity
  8
detail
 62
    16
  6
CONTINUOUS
370
     5
100
AcDbLine
 10
18.32272101
 20
-55.69091321
 30
0.0
 11
18.32234321
 21
-55.69023078
 31
0.0
  0
LINE
  5
357
100
AcDbEntity
  8
detail
 62
    16
  6
CONTINUOUS
370
     5
100
AcDbLine
 10
18.32249482
 20
-55.68922011
 30
0.0
 11
18.3228328
 21
-55.68889408
 31
0.0
  0
LINE
  5
358
100
AcDbEntity
  8
detail
 62
    16
  6
CONTINUOUS
370
     5
100
AcDbLine
 10
18.3231002
 20
-55.68908858
 30
0.0
 11
18.32281273
 21
-55.68967717
 31
0.0
  0
LINE
  5
359
100
AcDbEntity
  8
detail
 62
    16
  6
CONTINUOUS
370
     5
100
AcDbLine
 10
18.32281936
 20
-55.68993547
 30
0.0
 11
18.32297786
 21
-55.69022179
 31
0.0
  0
LINE
  5
35A
100
AcDbEntity
  8
detail
 62
    16
  6
CONTINUOUS
370
     5
100
AcDbLine
 10
18.32272101
 20
-55.69091321
 30
0.0
 11
18.32234321
 21
-55.69023078
 31
0.0
  0
LINE
  5
35B
100
AcDbEntity
  8
detail
 62
    16
  6
CONTINUOUS
370
     5
100
AcDbLine
 10
18.32249482
 20
-55.68922011
 30
0.0
 11
18.3228328
 21
-55.68889408
 31
0.0
  0
LINE
  5
35C
100
AcDbEntity
  8
detail
 62
    16
  6
CONTINUOUS
370
     5
100
AcDbLine
 10
18.3231002
 20
-55.68908858
 30
0.0
 11
18.32281273
 21
-55.68967717
 31
0.0
  0
LINE
  5
35D
100
AcDbEntity
  8
detail
 62
    16
  6
CONTINUOUS
370
     5
100
AcDbLine
 10
18.32281936
 20
-55.68993547
 30
0.0
 11
18.32297786
 21
-55.69022179
 31
0.0
  0
LINE
  5
35E
100
AcDbEntity
  8
detail
 62
    16
  6
CONTINUOUS
370
     5
100
AcDbLine
 10
18.32272101
 20
-55.69091321
 30
0.0
 11
18.32234321
 21
-55.69023078
 31
0.0
  0
LINE
  5
35F
100
AcDbEntity
  8
detail
 62
    16
  6
CONTINUOUS
370
     5
100
AcDbLine
 10
18.32249482
 20
-55.68922011
 30
0.0
 11
18.3228328
 21
-55.68889408
 31
0.0
  0
LINE
  5
360
100
AcDbEntity
  8
detail
 62
    16
  6
CONTINUOUS
370
     5
100
AcDbLine
 10
18.3231002
 20
-55.68908858
 30
0.0
 11
18.32281273
 21
-55.68967717
 31
0.0
  0
LINE
  5
361
100
AcDbEntity
  8
detail
 62
    16
  6
CONTINUOUS
370
     5
100
AcDbLine
 10
18.32281936
 20
-55.68993547
 30
0.0
 11
18.32297786
 21
-55.69022179
 31
0.0
  0
LINE
  5
362
100
AcDbEntity
  8
detail
 62
    16
  6
CONTINUOUS
370
     5
100
AcDbLine
 10
18.32272101
 20
-55.69091321
 30
0.0
 11
18.32234321
 21
-55.69023078
 31
0.0
  0
LINE
  5
363
100
AcDbEntity
  8
detail
 62
    16
  6
CONTINUOUS
370
     5
100
AcDbLine
 10
18.32249482
 20
-55.68922011
 30
0.0
 11
18.3228328
 21
-55.68889408
 31
0.0
  0
LINE
  5
364
100
AcDbEntity
  8
detail
 62
    16
  6
CONTINUOUS
370
     5
100
AcDbLine
 10
18.3231002
 20
-55.68908858
 30
0.0
 11
18.32281273
 21
-55.68967717
 31
0.0
  0
LINE
  5
365
100
AcDbEntity
  8
detail
 62
    16
  6
CONTINUOUS
370
     5
100
AcDbLine
 10
18.32281936
 20
-55.68993547
 30
0.0
 11
18.32297786
 21
-55.69022179
 31
0.0
  0
LINE
  5
366
100
AcDbEntity
  8
detail
 62
    16
  6
CONTINUOUS
370
     5
100
AcDbLine
 10
18.32272101
 20
-55.69091321
 30
0.0
 11
18.32234321
 21
-55.69023078
 31
0.0
  0
LINE
  5
367
100
AcDbEntity
  8
detail
 62
    16
  6
CONTINUOUS
370
     5
100
AcDbLine
 10
18.32249482
 20
-55.68922011
 30
0.0
 11
18.3228328
 21
-55.68889408
 31
0.0
  0
LINE
  5
368
100
AcDbEntity
  8
detail
 62
    16
  6
CONTINUOUS
370
     5
100
AcDbLine
 10
18.3231002
 20
-55.68908858
 30
0.0
 11
18.32281273
 21
-55.68967717
 31
0.0
  0
LINE
  5
369
100
AcDbEntity
  8
detail
 62
    16
  6
CONTINUOUS
370
     5
100
AcDbLine
 10
18.32281936
 20
-55.68993547
 30
0.0
 11
18.32297786
 21
-55.69022179
 31
0.0
  0
LINE
  5
36A
100
AcDbEntity
  8
detail
 62
    16
  6
CONTINUOUS
370
     5
100
AcDbLine
 10
18.32327959
 20
-55.68589863
 30
0.0
 11
18.32076433
 21
-55.68841377
 31
0.0
  0
LINE
  5
36B
100
AcDbEntity
  8
detail
 62
    16
  6
CONTINUOUS
370
     5
100
AcDbLine
 10
18.32071844
 20
-55.68847156
 30
0.0
 11
18.32041445
 21
-55.68876481
 31
0.0
  0
LINE
  5
36C
100
AcDbEntity
  8
detail
 62
    16
  6
CONTINUOUS
370
     5
100
AcDbLine
 10
18.32071844
 20
-55.68847156
 30
0.0
 11
18.32041445
 21
-55.68876481
 31
0.0
  0
LINE
  5
36D
100
AcDbEntity
  8
detail
 62
    16
  6
CONTINUOUS
370
     5
100
AcDbLine
 10
18.32071844
 20
-55.68847156
 30
0.0
 11
18.32041445
 21
-55.68876481
 31
0.0
  0
LINE
  5
36E
100
AcDbEntity
  8
detail
 62
    16
  6
CONTINUOUS
370
     5
100
AcDbLine
 10
18.32071844
 20
-55.68847156
 30
0.0
 11
18.32041445
 21
-55.68876481
 31
0.0
  0
LINE
  5
36F
100
AcDbEntity
  8
detail
 62
    16
  6
CONTINUOUS
370
     5
100
AcDbLine
 10
18.32071844
 20
-55.68847156
 30
0.0
 11
18.32041445
 21
-55.68876481
 31
0.0
  0
LINE
  5
370
100
AcDbEntity
  8
detail
 62
    16
  6
CONTINUOUS
370
     5
100
AcDbLine
 10
18.32071844
 20
-55.68847156
 30
0.0
 11
18.32041445
 21
-55.68876481
 31
0.0
  0
LINE
  5
371
100
AcDbEntity
  8
detail
 62
    16
  6
CONTINUOUS
370
     5
100
AcDbLine
 10
18.32071844
 20
-55.68847156
 30
0.0
 11
18.32041445
 21
-55.68876481
 31
0.0
  0
LINE
  5
372
100
AcDbEntity
  8
detail
 62
    16
  6
CONTINUOUS
370
     5
100
AcDbLine
 10
18.32071844
 20
-55.68847156
 30
0.0
 11
18.32041445
 21
-55.68876481
 31
0.0
  0
LINE
  5
373
100
AcDbEntity
  8
detail
 62
    16
  6
CONTINUOUS
370
     5
100
AcDbLine
 10
18.32071844
 20
-55.68847156
 30
0.0
 11
18.32041445
 21
-55.68876481
 31
0.0
  0
LINE
  5
374
100
AcDbEntity
  8
detail
 62
    16
  6
CONTINUOUS
370
     5
100
AcDbLine
 10
18.32071844
 20
-55.68847156
 30
0.0
 11
18.32041445
 21
-55.68876481
 31
0.0
  0
LINE
  5
375
100
AcDbEntity
  8
detail
 62
    16
  6
CONTINUOUS
370
     5
100
AcDbLine
 10
18.32071844
 20
-55.68847156
 30
0.0
 11
18.32041445
 21
-55.68876481
 31
0.0
  0
LINE
  5
376
100
AcDbEntity
  8
detail
 62
    16
  6
CONTINUOUS
370
     5
100
AcDbLine
 10
18.32071844
 20
-55.68847156
 30
0.0
 11
18.32041445
 21
-55.68876481
 31
0.0
  0
LINE
  5
377
100
AcDbEntity
  8
detail
 62
    16
  6
CONTINUOUS
370
     5
100
AcDbLine
 10
18.32071844
 20
-55.68847156
 30
0.0
 11
18.32041445
 21
-55.68876481
 31
0.0
  0
LINE
  5
378
100
AcDbEntity
  8
detail
 62
    16
  6
CONTINUOUS
370
     5
100
AcDbLine
 10
18.32071844
 20
-55.68847156
 30
0.0
 11
18.32041445
 21
-55.68876481
 31
0.0
  0
LINE
  5
379
100
AcDbEntity
  8
detail
 62
    16
  6
CONTINUOUS
370
     5
100
AcDbLine
 10
18.32071844
 20
-55.68847156
 30
0.0
 11
18.32041445
 21
-55.68876481
 31
0.0
  0
LINE
  5
37A
100
AcDbEntity
  8
detail
 62
    16
  6
CONTINUOUS
370
     5
100
AcDbLine
 10
18.32071844
 20
-55.68847156
 30
0.0
 11
18.32041445
 21
-55.68876481
 31
0.0
  0
LINE
  5
37B
100
AcDbEntity
  8
detail
 62
    16
  6
CONTINUOUS
370
     5
100
AcDbLine
 10
18.3310817
 20
-55.68348653
 30
0.0
 11
18.33147983
 21
-55.68374486
 31
0.0
  0
LINE
  5
37C
100
AcDbEntity
  8
detail
 62
    16
  6
CONTINUOUS
370
     5
100
AcDbLine
 10
18.38859982
 20
-55.73765916
 30
0.0
 11
18.38859982
 21
-55.72786121
 31
0.0
  0
LINE
  5
37D
100
AcDbEntity
  8
detail
 62
    16
  6
CONTINUOUS
370
     5
100
AcDbLine
 10
18.38859982
 20
-55.73765916
 30
0.0
 11
18.39839778
 21
-55.73765916
 31
0.0
  0
LINE
  5
37E
100
AcDbEntity
  8
detail
 62
    16
  6
CONTINUOUS
370
     5
100
AcDbLine
 10
18.39839778
 20
-55.73765916
 30
0.0
 11
18.39839778
 21
-55.72786121
 31
0.0
  0
LINE
  5
37F
100
AcDbEntity
  8
detail
 62
    16
  6
CONTINUOUS
370
     5
100
AcDbLine
 10
18.39839778
 20
-55.72786121
 30
0.0
 11
18.38859982
 21
-55.72786121
 31
0.0
  0
LINE
  5
380
100
AcDbEntity
  8
detail
 62
    16
  6
CONTINUOUS
370
     5
100
AcDbLine
 10
18.3934988
 20
-55.73276019
 30
0.0
 11
18.3934988
 21
-55.73276019
 31
0.0
  0
LINE
  5
381
100
AcDbEntity
  8
detail
 62
    16
  6
CONTINUOUS
370
     5
100
AcDbLine
 10
18.38859982
 20
-55.73765916
 30
0.0
 11
18.38859982
 21
-55.72786121
 31
0.0
  0
LINE
  5
382
100
AcDbEntity
  8
detail
 62
    16
  6
CONTINUOUS
370
     5
100
AcDbLine
 10
18.38859982
 20
-55.73765916
 30
0.0
 11
18.39839778
 21
-55.73765916
 31
0.0
  0
LINE
  5
383
100
AcDbEntity
  8
detail
 62
    16
  6
CONTINUOUS
370
     5
100
AcDbLine
 10
18.39839778
 20
-55.73765916
 30
0.0
 11
18.39839778
 21
-55.72786121
 31
0.0
  0
LINE
  5
384
100
AcDbEntity
  8
detail
 62
    16
  6
CONTINUOUS
370
     5
100
AcDbLine
 10
18.39839778
 20
-55.72786121
 30
0.0
 11
18.38859982
 21
-55.72786121
 31
0.0
  0
LINE
  5
385
100
AcDbEntity
  8
detail
 62
    16
  6
CONTINUOUS
370
     5
100
AcDbLine
 10
18.3934988
 20
-55.73276019
 30
0.0
 11
18.3934988
 21
-55.73276019
 31
0.0
  0
LINE
  5
386
100
AcDbEntity
  8
detail
 62
    16
  6
CONTINUOUS
370
     5
100
AcDbLine
 10
18.38859982
 20
-55.73765916
 30
0.0
 11
18.38859982
 21
-55.72786121
 31
0.0
  0
LINE
  5
387
100
AcDbEntity
  8
detail
 62
    16
  6
CONTINUOUS
370
     5
100
AcDbLine
 10
18.38859982
 20
-55.73765916
 30
0.0
 11
18.39839778
 21
-55.73765916
 31
0.0
  0
LINE
  5
388
100
AcDbEntity
  8
detail
 62
    16
  6
CONTINUOUS
370
     5
100
AcDbLine
 10
18.39839778
 20
-55.73765916
 30
0.0
 11
18.39839778
 21
-55.72786121
 31
0.0
  0
LINE
  5
389
100
AcDbEntity
  8
detail
 62
    16
  6
CONTINUOUS
370
     5
100
AcDbLine
 10
18.39839778
 20
-55.72786121
 30
0.0
 11
18.38859982
 21
-55.72786121
 31
0.0
  0
LINE
  5
38A
100
AcDbEntity
  8
detail
 62
    16
  6
CONTINUOUS
370
     5
100
AcDbLine
 10
18.3934988
 20
-55.73276019
 30
0.0
 11
18.3934988
 21
-55.73276019
 31
0.0
  0
LINE
  5
38B
100
AcDbEntity
  8
detail
 62
    16
  6
CONTINUOUS
370
     5
100
AcDbLine
 10
18.38859982
 20
-55.73765916
 30
0.0
 11
18.38859982
 21
-55.72786121
 31
0.0
  0
LINE
  5
38C
100
AcDbEntity
  8
detail
 62
    16
  6
CONTINUOUS
370
     5
100
AcDbLine
 10
18.38859982
 20
-55.73765916
 30
0.0
 11
18.39839778
 21
-55.73765916
 31
0.0
  0
LINE
  5
38D
100
AcDbEntity
  8
detail
 62
    16
  6
CONTINUOUS
370
     5
100
AcDbLine
 10
18.39839778
 20
-55.73765916
 30
0.0
 11
18.39839778
 21
-55.72786121
 31
0.0
  0
LINE
  5
38E
100
AcDbEntity
  8
detail
 62
    16
  6
CONTINUOUS
370
     5
100
AcDbLine
 10
18.39839778
 20
-55.72786121
 30
0.0
 11
18.38859982
 21
-55.72786121
 31
0.0
  0
LINE
  5
38F
100
AcDbEntity
  8
detail
 62
    16
  6
CONTINUOUS
370
     5
100
AcDbLine
 10
18.40009586
 20
-55.76320249
 30
0.0
 11
18.41143053
 21
-55.74264907
 31
0.0
  0
LINE
  5
390
100
AcDbEntity
  8
detail
 62
    16
  6
CONTINUOUS
370
     5
100
AcDbLine
 10
18.38690174
 20
-55.76320249
 30
0.0
 11
18.37556707
 21
-55.74264907
 31
0.0
  0
LINE
  5
391
100
AcDbEntity
  8
detail
 62
    16
  6
CONTINUOUS
370
     5
100
AcDbLine
 10
18.39839778
 20
-55.73765916
 30
0.0
 11
18.38859982
 21
-55.72786121
 31
0.0
  0
LINE
  5
392
100
AcDbEntity
  8
detail
 62
    16
  6
CONTINUOUS
370
     5
100
AcDbLine
 10
18.39839778
 20
-55.72786121
 30
0.0
 11
18.38859982
 21
-55.73765916
 31
0.0
  0
LINE
  5
393
100
AcDbEntity
  8
detail
 62
    16
  6
CENTER
370
     5
100
AcDbLine
 10
18.37965099
 20
-55.73276019
 30
0.0
 11
18.40734661
 21
-55.73276019
 31
0.0
  0
LINE
  5
394
100
AcDbEntity
  8
detail
 62
    16
  6
CENTER
370
     5
100
AcDbLine
 10
18.3934988
 20
-55.74641538
 30
0.0
 11
18.3934988
 21
-55.71930764
 31
0.0
  0
LINE
  5
395
100
AcDbEntity
  8
detail
 62
    16
  6
CENTER
370
     5
100
AcDbLine
 10
18.35297068
 20
-55.77791053
 30
0.0
 11
18.34408798
 21
-55.77791053
 31
0.0
  0
LINE
  5
396
100
AcDbEntity
  8
detail
 62
    16
  6
CENTER
370
     5
100
AcDbLine
 10
18.3484791
 20
-55.78218139
 30
0.0
 11
18.3484791
 21
-55.77347634
 31
0.0
  0
LINE
  5
397
100
AcDbEntity
  8
detail
 62
    16
  6
CONTINUOUS
370
     5
100
AcDbLine
 10
18.3659791
 20
-55.80334692
 30
0.0
 11
18.3309791
 21
-55.80334692
 31
0.0
  0
LINE
  5
398
100
AcDbEntity
  8
detail
 62
    16
  6
CONTINUOUS
370
     5
100
AcDbLine
 10
18.33276255
 20
-55.7957254
 30
0.0
 11
18.34418528
 21
-55.77476527
 31
0.0
  0
LINE
  5
399
100
AcDbEntity
  8
detail
 62
    16
  6
CONTINUOUS
370
     5
100
AcDbLine
 10
18.36419566
 20
-55.7957254
 30
0.0
 11
18.35277292
 21
-55.77476527
 31
0.0
  0
LINE
  5
39A
100
AcDbEntity
  8
detail
 62
    16
  6
CONTINUOUS
370
     5
100
AcDbLine
 10
18.35700306
 20
-55.84579681
 30
0.0
 11
18.3484791
 21
-55.84579681
 31
0.0
  0
LINE
  5
39B
100
AcDbEntity
  8
detail
 62
    16
  6
CONTINUOUS
370
     5
100
AcDbLine
 10
18.33609604
 20
-55.80334692
 30
0.0
 11
18.3329791
 21
-55.80334692
 31
0.0
  0
LINE
  5
39C
100
AcDbEntity
  8
detail
 62
    16
  6
CONTINUOUS
370
     5
100
AcDbLine
 10
18.3484791
 20
-55.84479681
 30
0.0
 11
18.35897177
 21
-55.84479681
 31
0.0
  0
LINE
  5
39D
100
AcDbEntity
  8
detail
 62
    16
  6
CONTINUOUS
370
     5
100
AcDbLine
 10
18.33480833
 20
-55.80407936
 30
0.0
 11
18.33609604
 21
-55.80407936
 31
0.0
  0
LINE
  5
39E
100
AcDbEntity
  8
detail
 62
    16
  6
CONTINUOUS
370
     5
100
AcDbLine
 10
18.3649791
 20
-55.80579913
 30
0.0
 11
18.3649791
 21
-55.84302683
 31
0.0
  0
LINE
  5
39F
100
AcDbEntity
  8
detail
 62
    16
  6
CONTINUOUS
370
     5
100
AcDbLine
 10
18.34084172
 20
-55.80379913
 30
0.0
 11
18.3639791
 21
-55.80379913
 31
0.0
  0
LINE
  5
3A0
100
AcDbEntity
  8
detail
 62
    16
  6
CONTINUOUS
370
     5
100
AcDbLine
 10
18.33480833
 20
-55.80507751
 30
0.0
 11
18.33480833
 21
-55.80407936
 31
0.0
  0
LINE
  5
3A1
100
AcDbEntity
  8
detail
 62
    16
  6
CONTINUOUS
370
     5
100
AcDbLine
 10
18.3659791
 20
-55.80384692
 30
0.0
 11
18.3659791
 21
-55.84302683
 31
0.0
  0
LINE
  5
3A2
100
AcDbEntity
  8
detail
 62
    16
  6
CONTINUOUS
370
     5
100
AcDbLine
 10
18.3319791
 20
-55.84935106
 30
0.0
 11
18.3319791
 21
-55.84486826
 31
0.0
  0
LINE
  5
3A3
100
AcDbEntity
  8
detail
 62
    16
  6
CONTINUOUS
370
     5
100
AcDbLine
 10
18.3578434
 20
-55.8463312
 30
0.0
 11
18.35924639
 21
-55.84550329
 31
0.0
  0
LINE
  5
3A4
100
AcDbEntity
  8
detail
 62
    16
  6
CONTINUOUS
370
     5
100
AcDbLine
 10
18.3309791
 20
-55.80534692
 30
0.0
 11
18.3309791
 21
-55.84935106
 31
0.0
  0
LINE
  5
3A5
100
AcDbEntity
  8
detail
 62
    16
  6
CONTINUOUS
370
     5
100
AcDbLine
 10
18.35141444
 20
-55.84984692
 30
0.0
 11
18.35915901
 21
-55.84984692
 31
0.0
  0
LINE
  5
3A6
100
AcDbEntity
  8
detail
 62
    16
  6
CONTINUOUS
370
     5
100
AcDbLine
 10
18.3319791
 20
-55.80534692
 30
0.0
 11
18.3319791
 21
-55.84627287
 31
0.0
  0
LINE
  5
3A7
100
AcDbEntity
  8
detail
 62
    16
  6
CONTINUOUS
370
     5
100
AcDbLine
 10
18.3565702
 20
-55.84884692
 30
0.0
 11
18.35141444
 21
-55.84884692
 31
0.0
  0
LINE
  5
3A8
100
AcDbEntity
  8
detail
 62
    16
  6
CONTINUOUS
370
     5
100
AcDbLine
 10
18.35793989
 20
-55.84884692
 30
0.0
 11
18.35915901
 21
-55.84884692
 31
0.0
  0
LINE
  5
3A9
100
AcDbEntity
  8
detail
 62
    16
  6
CONTINUOUS
370
     5
100
AcDbLine
 10
18.34106168
 20
-55.80479913
 30
0.0
 11
18.3639791
 21
-55.80479913
 31
0.0
  0
LINE
  5
3AA
100
AcDbEntity
  8
detail
 62
    16
  6
CONTINUOUS
370
     5
100
AcDbLine
 10
18.33881061
 20
-55.80334692
 30
0.0
 11
18.34010316
 21
-55.80334692
 31
0.0
  0
LINE
  5
3AB
100
AcDbEntity
  8
detail
 62
    16
  6
CONTINUOUS
370
     5
100
AcDbLine
 10
18.3348035
 20
-55.80607751
 30
0.0
 11
18.34009833
 21
-55.80607751
 31
0.0
  0
LINE
  5
3AC
100
AcDbEntity
  8
detail
 62
    16
  6
CONTINUOUS
370
     5
100
AcDbLine
 10
18.36503795
 20
-55.80410241
 30
0.0
 11
18.36503795
 21
-55.80365021
 31
0.0
  0
LINE
  5
3AD
100
AcDbEntity
  8
detail
 62
    16
  6
CONTINUOUS
370
     5
100
AcDbLine
 10
18.34009833
 20
-55.80407936
 30
0.0
 11
18.33881061
 21
-55.80407936
 31
0.0
  0
LINE
  5
3AE
100
AcDbEntity
  8
detail
 62
    16
  6
CONTINUOUS
370
     5
100
AcDbLine
 10
18.3514791
 20
-55.82134899
 30
0.0
 11
18.3454791
 21
-55.82134899
 31
0.0
  0
LINE
  5
3AF
100
AcDbEntity
  8
detail
 62
    16
  6
CONTINUOUS
370
     5
100
AcDbLine
 10
18.3454791
 20
-55.82134899
 30
0.0
 11
18.3454791
 21
-55.82734899
 31
0.0
  0
LINE
  5
3B0
100
AcDbEntity
  8
detail
 62
    16
  6
CONTINUOUS
370
     5
100
AcDbLine
 10
18.3454791
 20
-55.82734899
 30
0.0
 11
18.3514791
 21
-55.82734899
 31
0.0
  0
LINE
  5
3B1
100
AcDbEntity
  8
detail
 62
    16
  6
CONTINUOUS
370
     5
100
AcDbLine
 10
18.3514791
 20
-55.82134899
 30
0.0
 11
18.3514791
 21
-55.82734899
 31
0.0
  0
LINE
  5
3B2
100
AcDbEntity
  8
detail
 62
    16
  6
CONTINUOUS
370
     5
100
AcDbLine
 10
18.3514791
 20
-55.82134899
 30
0.0
 11
18.3454791
 21
-55.82734899
 31
0.0
  0
LINE
  5
3B3
100
AcDbEntity
  8
detail
 62
    16
  6
CONTINUOUS
370
     5
100
AcDbLine
 10
18.3514791
 20
-55.82734899
 30
0.0
 11
18.3454791
 21
-55.82134899
 31
0.0
  0
LINE
  5
3B4
100
AcDbEntity
  8
detail
 62
    16
  6
CONTINUOUS
370
     5
100
AcDbLine
 10
18.34093238
 20
-55.80513365
 30
0.0
 11
18.34093238
 21
-55.80524829
 31
0.0
  0
LINE
  5
3B5
100
AcDbEntity
  8
detail
 62
    16
  6
CONTINUOUS
370
     5
100
AcDbLine
 10
18.33609604
 20
-55.80334692
 30
0.0
 11
18.33609604
 21
-55.80407936
 31
0.0
  0
LINE
  5
3B6
100
AcDbEntity
  8
detail
 62
    16
  6
CONTINUOUS
370
     5
100
AcDbLine
 10
18.34009833
 20
-55.80507751
 30
0.0
 11
18.34009833
 21
-55.80407936
 31
0.0
  0
LINE
  5
3B7
100
AcDbEntity
  8
detail
 62
    16
  6
CONTINUOUS
370
     5
100
AcDbLine
 10
18.33881061
 20
-55.80334692
 30
0.0
 11
18.33881061
 21
-55.80407936
 31
0.0
  0
LINE
  5
3B8
100
AcDbEntity
  8
detail
 62
    16
  6
CONTINUOUS
370
     5
100
AcDbLine
 10
18.33480833
 20
-55.80507751
 30
0.0
 11
18.34009833
 21
-55.80507751
 31
0.0
  0
LINE
  5
3B9
100
AcDbEntity
  8
detail
 62
    16
  6
CONTINUOUS
370
     5
100
AcDbLine
 10
18.3549791
 20
-55.85059934
 30
0.0
 11
18.3309791
 21
-55.85059934
 31
0.0
  0
LINE
  5
3BA
100
AcDbEntity
  8
detail
 62
    16
  6
CONTINUOUS
370
     5
100
AcDbLine
 10
18.31278835
 20
-55.82751096
 30
0.0
 11
18.31350283
 21
-55.83255335
 31
0.0
  0
LINE
  5
3BB
100
AcDbEntity
  8
detail
 62
    16
  6
CONTINUOUS
370
     5
100
AcDbLine
 10
18.36398912
 20
-55.7449835
 30
0.0
 11
18.36398912
 21
-55.72053688
 31
0.0
  0
LINE
  5
3BC
100
AcDbEntity
  8
detail
 62
    16
  6
CONTINUOUS
370
     5
100
AcDbLine
 10
18.38488431
 20
-55.77502943
 30
0.0
 11
18.36763431
 21
-55.77502943
 31
0.0
  0
LINE
  5
3BD
100
AcDbEntity
  8
detail
 62
    16
  6
CONTINUOUS
370
     5
100
AcDbLine
 10
18.45763431
 20
-55.77502943
 30
0.0
 11
18.44038431
 21
-55.77502943
 31
0.0
  0
LINE
  5
3BE
100
AcDbEntity
  8
detail
 62
    16
  6
CONTINUOUS
370
     5
100
AcDbLine
 10
18.40788431
 20
-55.77502943
 30
0.0
 11
18.41738431
 21
-55.77502943
 31
0.0
  0
LINE
  5
3BF
100
AcDbEntity
  8
detail
 62
    16
  6
CONTINUOUS
370
     5
100
AcDbLine
 10
18.36763431
 20
-55.77177943
 30
0.0
 11
18.45763431
 21
-55.77177943
 31
0.0
  0
LINE
  5
3C0
100
AcDbEntity
  8
detail
 62
    16
  6
CONTINUOUS
370
     5
100
AcDbLine
 10
18.36763431
 20
-55.78502943
 30
0.0
 11
18.36763431
 21
-55.78052943
 31
0.0
  0
LINE
  5
3C1
100
AcDbEntity
  8
detail
 62
    16
  6
CONTINUOUS
370
     5
100
AcDbLine
 10
18.36763431
 20
-55.77177943
 30
0.0
 11
18.36763431
 21
-55.77502943
 31
0.0
  0
LINE
  5
3C2
100
AcDbEntity
  8
detail
 62
    16
  6
CONTINUOUS
370
     5
100
AcDbLine
 10
18.45763431
 20
-55.77502943
 30
0.0
 11
18.45763431
 21
-55.77177943
 31
0.0
  0
LINE
  5
3C3
100
AcDbEntity
  8
detail
 62
    16
  6
CONTINUOUS
370
     5
100
AcDbLine
 10
18.36763431
 20
-55.83357943
 30
0.0
 11
18.45763431
 21
-55.83357943
 31
0.0
  0
LINE
  5
3C4
100
AcDbEntity
  8
detail
 62
    16
  6
CONTINUOUS
370
     5
100
AcDbLine
 10
18.37363431
 20
-55.83806849
 30
0.0
 11
18.37363431
 21
-55.82909037
 31
0.0
  0
LINE
  5
3C5
100
AcDbEntity
  8
detail
 62
    16
  6
CONTINUOUS
370
     5
100
AcDbLine
 10
18.45263431
 20
-55.83806849
 30
0.0
 11
18.45263431
 21
-55.82909037
 31
0.0
  0
LINE
  5
3C6
100
AcDbEntity
  8
detail
 62
    16
  6
CONTINUOUS
370
     5
100
AcDbLine
 10
18.45763431
 20
-55.83527943
 30
0.0
 11
18.44567166
 21
-55.83527943
 31
0.0
  0
LINE
  5
3C7
100
AcDbEntity
  8
detail
 62
    16
  6
CONTINUOUS
370
     5
100
AcDbLine
 10
18.37683431
 20
-55.83357943
 30
0.0
 11
18.37683431
 21
-55.83057943
 31
0.0
  0
LINE
  5
3C8
100
AcDbEntity
  8
detail
 62
    16
  6
CONTINUOUS
370
     5
100
AcDbLine
 10
18.37683431
 20
-55.83057943
 30
0.0
 11
18.37043431
 21
-55.83057943
 31
0.0
  0
LINE
  5
3C9
100
AcDbEntity
  8
detail
 62
    16
  6
CONTINUOUS
370
     5
100
AcDbLine
 10
18.37043431
 20
-55.83357943
 30
0.0
 11
18.37043431
 21
-55.83057943
 31
0.0
  0
LINE
  5
3CA
100
AcDbEntity
  8
detail
 62
    16
  6
CONTINUOUS
370
     5
100
AcDbLine
 10
18.45583431
 20
-55.83357943
 30
0.0
 11
18.45583431
 21
-55.83057943
 31
0.0
  0
LINE
  5
3CB
100
AcDbEntity
  8
detail
 62
    16
  6
CONTINUOUS
370
     5
100
AcDbLine
 10
18.45583431
 20
-55.83057943
 30
0.0
 11
18.44943431
 21
-55.83057943
 31
0.0
  0
LINE
  5
3CC
100
AcDbEntity
  8
detail
 62
    16
  6
CONTINUOUS
370
     5
100
AcDbLine
 10
18.44943431
 20
-55.83357943
 30
0.0
 11
18.44943431
 21
-55.83057943
 31
0.0
  0
LINE
  5
3CD
100
AcDbEntity
  8
detail
 62
    16
  6
CONTINUOUS
370
     5
100
AcDbLine
 10
18.36763431
 20
-55.83527943
 30
0.0
 11
18.37959696
 21
-55.83527943
 31
0.0
  0
LINE
  5
3CE
100
AcDbEntity
  8
detail
 62
    16
  6
CONTINUOUS
370
     5
100
AcDbLine
 10
18.44607077
 20
-55.84881927
 30
0.0
 11
18.44517021
 21
-55.83577943
 31
0.0
  0
LINE
  5
3CF
100
AcDbEntity
  8
detail
 62
    16
  6
CONTINUOUS
370
     5
100
AcDbLine
 10
18.37919785
 20
-55.84881927
 30
0.0
 11
18.38009841
 21
-55.83577943
 31
0.0
  0
LINE
  5
3D0
100
AcDbEntity
  8
detail
 62
    16
  6
CONTINUOUS
370
     5
100
AcDbLine
 10
18.36763431
 20
-55.83477943
 30
0.0
 11
18.45763431
 21
-55.83477943
 31
0.0
  0
LINE
  5
3D1
100
AcDbEntity
  8
detail
 62
    16
  6
CONTINUOUS
370
     5
100
AcDbLine
 10
18.38488431
 20
-55.78502943
 30
0.0
 11
18.36763431
 21
-55.78502943
 31
0.0
  0
LINE
  5
3D2
100
AcDbEntity
  8
detail
 62
    16
  6
CONTINUOUS
370
     5
100
AcDbLine
 10
18.38488431
 20
-55.79052943
 30
0.0
 11
18.36763431
 21
-55.79052943
 31
0.0
  0
LINE
  5
3D3
100
AcDbEntity
  8
detail
 62
    16
  6
CONTINUOUS
370
     5
100
AcDbLine
 10
18.36763431
 20
-55.81052943
 30
0.0
 11
18.38488431
 21
-55.81052943
 31
0.0
  0
LINE
  5
3D4
100
AcDbEntity
  8
detail
 62
    16
  6
CONTINUOUS
370
     5
100
AcDbLine
 10
18.36763431
 20
-55.80502943
 30
0.0
 11
18.38488431
 21
-55.80502943
 31
0.0
  0
LINE
  5
3D5
100
AcDbEntity
  8
detail
 62
    16
  6
CONTINUOUS
370
     5
100
AcDbLine
 10
18.36763431
 20
-55.80052943
 30
0.0
 11
18.38488431
 21
-55.80052943
 31
0.0
  0
LINE
  5
3D6
100
AcDbEntity
  8
detail
 62
    16
  6
CONTINUOUS
370
     5
100
AcDbLine
 10
18.36763431
 20
-55.79502943
 30
0.0
 11
18.38488431
 21
-55.79502943
 31
0.0
  0
LINE
  5
3D7
100
AcDbEntity
  8
detail
 62
    16
  6
CONTINUOUS
370
     5
100
AcDbLine
 10
18.45763431
 20
-55.78502943
 30
0.0
 11
18.44038431
 21
-55.78502943
 31
0.0
  0
LINE
  5
3D8
100
AcDbEntity
  8
detail
 62
    16
  6
CONTINUOUS
370
     5
100
AcDbLine
 10
18.45763431
 20
-55.79052943
 30
0.0
 11
18.44038431
 21
-55.79052943
 31
0.0
  0
LINE
  5
3D9
100
AcDbEntity
  8
detail
 62
    16
  6
CONTINUOUS
370
     5
100
AcDbLine
 10
18.44038431
 20
-55.79502943
 30
0.0
 11
18.45763431
 21
-55.79502943
 31
0.0
  0
LINE
  5
3DA
100
AcDbEntity
  8
detail
 62
    16
  6
CONTINUOUS
370
     5
100
AcDbLine
 10
18.43763431
 20
-55.80777943
 30
0.0
 11
18.43763431
 21
-55.80777943
 31
0.0
  0
LINE
  5
3DB
100
AcDbEntity
  8
detail
 62
    16
  6
CONTINUOUS
370
     5
100
AcDbLine
 10
18.45763431
 20
-55.80502943
 30
0.0
 11
18.44038431
 21
-55.80502943
 31
0.0
  0
LINE
  5
3DC
100
AcDbEntity
  8
detail
 62
    16
  6
CONTINUOUS
370
     5
100
AcDbLine
 10
18.45763431
 20
-55.81052943
 30
0.0
 11
18.44038431
 21
-55.81052943
 31
0.0
  0
LINE
  5
3DD
100
AcDbEntity
  8
detail
 62
    16
  6
CONTINUOUS
370
     5
100
AcDbLine
 10
18.45763431
 20
-55.80052943
 30
0.0
 11
18.44038431
 21
-55.80052943
 31
0.0
  0
LINE
  5
3DE
100
AcDbEntity
  8
detail
 62
    16
  6
CONTINUOUS
370
     5
100
AcDbLine
 10
18.40788431
 20
-55.79502943
 30
0.0
 11
18.41738431
 21
-55.79502943
 31
0.0
  0
LINE
  5
3DF
100
AcDbEntity
  8
detail
 62
    16
  6
CONTINUOUS
370
     5
100
AcDbLine
 10
18.40788431
 20
-55.80052943
 30
0.0
 11
18.41738431
 21
-55.80052943
 31
0.0
  0
LINE
  5
3E0
100
AcDbEntity
  8
detail
 62
    16
  6
CONTINUOUS
370
     5
100
AcDbLine
 10
18.40788431
 20
-55.80502943
 30
0.0
 11
18.41738431
 21
-55.80502943
 31
0.0
  0
LINE
  5
3E1
100
AcDbEntity
  8
detail
 62
    16
  6
CONTINUOUS
370
     5
100
AcDbLine
 10
18.40788431
 20
-55.81052943
 30
0.0
 11
18.41738431
 21
-55.81052943
 31
0.0
  0
LINE
  5
3E2
100
AcDbEntity
  8
detail
 62
    16
  6
CONTINUOUS
370
     5
100
AcDbLine
 10
18.40788431
 20
-55.78502943
 30
0.0
 11
18.41738431
 21
-55.78502943
 31
0.0
  0
LINE
  5
3E3
100
AcDbEntity
  8
detail
 62
    16
  6
CONTINUOUS
370
     5
100
AcDbLine
 10
18.40788431
 20
-55.79052943
 30
0.0
 11
18.41738431
 21
-55.79052943
 31
0.0
  0
LINE
  5
3E4
100
AcDbEntity
  8
detail
 62
    16
  6
CONTINUOUS
370
     5
100
AcDbLine
 10
18.36763431
 20
-55.80502943
 30
0.0
 11
18.36763431
 21
-55.80052943
 31
0.0
  0
LINE
  5
3E5
100
AcDbEntity
  8
detail
 62
    16
  6
CONTINUOUS
370
     5
100
AcDbLine
 10
18.36763431
 20
-55.79502943
 30
0.0
 11
18.36763431
 21
-55.79052943
 31
0.0
  0
LINE
  5
3E6
100
AcDbEntity
  8
detail
 62
    16
  6
CONTINUOUS
370
     5
100
AcDbLine
 10
18.45763431
 20
-55.79052943
 30
0.0
 11
18.45763431
 21
-55.79502943
 31
0.0
  0
LINE
  5
3E7
100
AcDbEntity
  8
detail
 62
    16
  6
CONTINUOUS
370
     5
100
AcDbLine
 10
18.45763431
 20
-55.80502943
 30
0.0
 11
18.45763431
 21
-55.80052943
 31
0.0
  0
LINE
  5
3E8
100
AcDbEntity
  8
detail
 62
    16
  6
CONTINUOUS
370
     5
100
AcDbLine
 10
18.36763431
 20
-55.83477943
 30
0.0
 11
18.36763431
 21
-55.81052943
 31
0.0
  0
LINE
  5
3E9
100
AcDbEntity
  8
detail
 62
    16
  6
CONTINUOUS
370
     5
100
AcDbLine
 10
18.45763431
 20
-55.83477943
 30
0.0
 11
18.45763431
 21
-55.81052943
 31
0.0
  0
LINE
  5
3EA
100
AcDbEntity
  8
detail
 62
    16
  6
CONTINUOUS
370
     5
100
AcDbLine
 10
18.45763431
 20
-55.85778297
 30
0.0
 11
18.36763431
 21
-55.85778297
 31
0.0
  0
LINE
  5
3EB
100
AcDbEntity
  8
detail
 62
    16
  6
CONTINUOUS
370
     5
100
AcDbLine
 10
18.36763431
 20
-55.85778297
 30
0.0
 11
18.36763431
 21
-55.85731656
 31
0.0
  0
LINE
  5
3EC
100
AcDbEntity
  8
detail
 62
    16
  6
CONTINUOUS
370
     5
100
AcDbLine
 10
18.36763431
 20
-55.85731656
 30
0.0
 11
18.36823105
 21
-55.85628297
 31
0.0
  0
LINE
  5
3ED
100
AcDbEntity
  8
detail
 62
    16
  6
CONTINUOUS
370
     5
100
AcDbLine
 10
18.45763431
 20
-55.85778297
 30
0.0
 11
18.45763431
 21
-55.85731656
 31
0.0
  0
LINE
  5
3EE
100
AcDbEntity
  8
detail
 62
    16
  6
CONTINUOUS
370
     5
100
AcDbLine
 10
18.45763431
 20
-55.85731656
 30
0.0
 11
18.45703757
 21
-55.85628297
 31
0.0
  0
LINE
  5
3EF
100
AcDbEntity
  8
detail
 62
    16
  6
CONTINUOUS
370
     5
100
AcDbLine
 10
18.45703757
 20
-55.85628297
 30
0.0
 11
18.36823105
 21
-55.85628297
 31
0.0
  0
LINE
  5
3F0
100
AcDbEntity
  8
detail
 62
    16
  6
CONTINUOUS
370
     5
100
AcDbLine
 10
18.38927202
 20
-55.84352542
 30
0.0
 11
18.38927202
 21
-55.85628297
 31
0.0
  0
LINE
  5
3F1
100
AcDbEntity
  8
detail
 62
    16
  6
CONTINUOUS
370
     5
100
AcDbLine
 10
18.38927202
 20
-55.84352542
 30
0.0
 11
18.38463941
 21
-55.84352542
 31
0.0
  0
LINE
  5
3F2
100
AcDbEntity
  8
detail
 62
    16
  6
CONTINUOUS
370
     5
100
AcDbLine
 10
18.38827202
 20
-55.84452542
 30
0.0
 11
18.38827202
 21
-55.85628297
 31
0.0
  0
LINE
  5
3F3
100
AcDbEntity
  8
detail
 62
    16
  6
CONTINUOUS
370
     5
100
AcDbLine
 10
18.43726621
 20
-55.84452542
 30
0.0
 11
18.43726621
 21
-55.85628297
 31
0.0
  0
LINE
  5
3F4
100
AcDbEntity
  8
detail
 62
    16
  6
CONTINUOUS
370
     5
100
AcDbLine
 10
18.38239325
 20
-55.84452542
 30
0.0
 11
18.38827202
 21
-55.83864665
 31
0.0
  0
LINE
  5
3F5
100
AcDbEntity
  8
detail
 62
    16
  6
CONTINUOUS
370
     5
100
AcDbLine
 10
18.38827202
 20
-55.84452542
 30
0.0
 11
18.38239325
 21
-55.84452542
 31
0.0
  0
LINE
  5
3F6
100
AcDbEntity
  8
detail
 62
    16
  6
CONTINUOUS
370
     5
100
AcDbLine
 10
18.44314498
 20
-55.84452542
 30
0.0
 11
18.43726621
 21
-55.83864665
 31
0.0
  0
LINE
  5
3F7
100
AcDbEntity
  8
detail
 62
    16
  6
CONTINUOUS
370
     5
100
AcDbLine
 10
18.43726621
 20
-55.84452542
 30
0.0
 11
18.44314498
 21
-55.84452542
 31
0.0
  0
LINE
  5
3F8
100
AcDbEntity
  8
detail
 62
    16
  6
CONTINUOUS
370
     5
100
AcDbLine
 10
18.38463941
 20
-55.84354887
 30
0.0
 11
18.38890682
 21
-55.83928145
 31
0.0
  0
LINE
  5
3F9
100
AcDbEntity
  8
detail
 62
    16
  6
CONTINUOUS
370
     5
100
AcDbLine
 10
18.43626652
 20
-55.84352542
 30
0.0
 11
18.43626652
 21
-55.85628297
 31
0.0
  0
LINE
  5
3FA
100
AcDbEntity
  8
detail
 62
    16
  6
CONTINUOUS
370
     5
100
AcDbLine
 10
18.43626652
 20
-55.84352542
 30
0.0
 11
18.44089914
 21
-55.84352542
 31
0.0
  0
LINE
  5
3FB
100
AcDbEntity
  8
detail
 62
    16
  6
CONTINUOUS
370
     5
100
AcDbLine
 10
18.44089914
 20
-55.84354887
 30
0.0
 11
18.43663172
 21
-55.83928145
 31
0.0
  0
LINE
  5
3FC
100
AcDbEntity
  8
detail
 62
    16
  6
CONTINUOUS
370
     5
100
AcDbLine
 10
18.31278835
 20
-55.82751096
 30
0.0
 11
18.31278835
 21
-55.6530472
 31
0.0
  0
LINE
  5
3FD
100
AcDbEntity
  8
detail
 62
    16
  6
CONTINUOUS
370
     5
100
AcDbLine
 10
18.41175939
 20
-55.70759912
 30
0.0
 11
18.41828435
 21
-55.71412407
 31
0.0
  0
LINE
  5
3FE
100
AcDbEntity
  8
detail
 62
    16
  6
CONTINUOUS
370
     5
100
AcDbLine
 10
18.4066245
 20
-55.70361645
 30
0.0
 11
18.41828435
 21
-55.7152763
 31
0.0
  0
LINE
  5
3FF
100
AcDbEntity
  8
detail
 62
    16
  6
CONTINUOUS
370
     5
100
AcDbLine
 10
18.41642645
 20
-55.70945702
 30
0.0
 11
18.41249946
 21
-55.713384
 31
0.0
  0
LINE
  5
400
100
AcDbEntity
  8
detail
 62
    16
  6
CONTINUOUS
370
     5
100
AcDbLine
 10
18.4070262
 20
-55.70493012
 30
0.0
 11
18.41782836
 21
-55.71573229
 31
0.0
  0
LINE
  5
401
100
AcDbEntity
  8
detail
 62
    16
  6
CONTINUOUS
370
     5
100
AcDbLine
 10
18.41828435
 20
-55.7152763
 30
0.0
 11
18.41780041
 21
-55.71576024
 31
0.0
  0
LINE
  5
402
100
AcDbEntity
  8
detail
 62
    16
  6
CONTINUOUS
370
     5
100
AcDbLine
 10
18.31675078
 20
-55.73203731
 30
0.0
 11
18.31660742
 21
-55.72826527
 31
0.0
  0
LINE
  5
403
100
AcDbEntity
  8
detail
 62
    16
  6
CONTINUOUS
370
     5
100
AcDbLine
 10
18.31644328
 20
-55.73278601
 30
0.0
 11
18.31660942
 21
-55.72821021
 31
0.0
  0
LINE
  5
404
100
AcDbEntity
  8
detail
 62
    16
  6
CONTINUOUS
370
     5
100
AcDbLine
 10
18.31539055
 20
-55.73375218
 30
0.0
 11
18.31615554
 21
-55.7332803
 31
0.0
  0
LINE
  5
405
100
AcDbEntity
  8
detail
 62
    16
  6
CONTINUOUS
370
     5
100
AcDbLine
 10
18.31637119
 20
-55.76964035
 30
0.0
 11
18.31646334
 21
-55.76442604
 31
0.0
  0
LINE
  5
406
100
AcDbEntity
  8
detail
 62
    16
  6
CONTINUOUS
370
     5
100
AcDbLine
 10
18.31610162
 20
-55.76963558
 30
0.0
 11
18.31619377
 21
-55.76442127
 31
0.0
  0
LINE
  5
407
100
AcDbEntity
  8
detail
 62
    16
  6
CONTINUOUS
370
     5
100
AcDbLine
 10
18.31725521
 20
-55.73233556
 30
0.0
 11
18.31863184
 21
-55.73277159
 31
0.0
  0
LINE
  5
408
100
AcDbEntity
  8
detail
 62
    16
  6
CONTINUOUS
370
     5
100
AcDbLine
 10
18.3171738
 20
-55.73259258
 30
0.0
 11
18.31855043
 21
-55.73302861
 31
0.0
  0
LINE
  5
409
100
AcDbEntity
  8
detail
 62
    16
  6
CONTINUOUS
370
     5
100
AcDbLine
 10
18.31816152
 20
-55.77008581
 30
0.0
 11
18.31757776
 21
-55.76977543
 31
0.0
  0
LINE
  5
40A
100
AcDbEntity
  8
detail
 62
    16
  6
CONTINUOUS
370
     5
100
AcDbLine
 10
18.3183201
 20
-55.76984825
 30
0.0
 11
18.31773634
 21
-55.76953787
 31
0.0
  0
LINE
  5
40B
100
AcDbEntity
  8
detail
 62
    16
  6
CONTINUOUS
370
     5
100
AcDbLine
 10
18.32103527
 20
-55.76454804
 30
0.0
 11
18.32098904
 21
-55.76808461
 31
0.0
  0
LINE
  5
40C
100
AcDbEntity
  8
detail
 62
    16
  6
CONTINUOUS
370
     5
100
AcDbLine
 10
18.31887131
 20
-55.76954893
 30
0.0
 11
18.3188214
 21
-55.76968723
 31
0.0
  0
LINE
  5
40D
100
AcDbEntity
  8
detail
 62
    16
  6
CONTINUOUS
370
     5
100
AcDbLine
 10
18.31847872
 20
-55.76961063
 30
0.0
 11
18.31781729
 21
-55.7692807
 31
0.0
  0
LINE
  5
40E
100
AcDbEntity
  8
detail
 62
    16
  6
CONTINUOUS
370
     5
100
AcDbLine
 10
18.32076568
 20
-55.76454451
 30
0.0
 11
18.32070431
 21
-55.76810719
 31
0.0
  0
LINE
  5
40F
100
AcDbEntity
  8
detail
 62
    16
  6
CONTINUOUS
370
     5
100
AcDbLine
 10
18.32070431
 20
-55.76810719
 30
0.0
 11
18.32064006
 21
-55.76454378
 31
0.0
  0
LINE
  5
410
100
AcDbEntity
  8
detail
 62
    16
  6
CONTINUOUS
370
     5
100
AcDbLine
 10
18.32041951
 20
-55.76812978
 30
0.0
 11
18.32037048
 21
-55.76454747
 31
0.0
  0
LINE
  5
411
100
AcDbEntity
  8
detail
 62
    16
  6
CONTINUOUS
370
     5
100
AcDbLine
 10
18.3179752
 20
-55.76908049
 30
0.0
 11
18.31887131
 21
-55.76954893
 31
0.0
  0
LINE
  5
412
100
AcDbEntity
  8
detail
 62
    16
  6
CONTINUOUS
370
     5
100
AcDbLine
 10
18.31461413
 20
-55.78542608
 30
0.0
 11
18.3144241
 21
-55.78494988
 31
0.0
  0
LINE
  5
413
100
AcDbEntity
  8
detail
 62
    16
  6
CONTINUOUS
370
     5
100
AcDbLine
 10
18.31467169
 20
-55.78595336
 30
0.0
 11
18.31490704
 21
-55.78543264
 31
0.0
  0
LINE
  5
414
100
AcDbEntity
  8
detail
 62
    16
  6
CONTINUOUS
370
     5
100
AcDbLine
 10
18.31490704
 20
-55.78543264
 30
0.0
 11
18.31469524
 21
-55.7849019
 31
0.0
  0
LINE
  5
415
100
AcDbEntity
  8
detail
 62
    16
  6
CONTINUOUS
370
     5
100
AcDbLine
 10
18.31508378
 20
-55.79691472
 30
0.0
 11
18.31535082
 21
-55.79735241
 31
0.0
  0
LINE
  5
416
100
AcDbEntity
  8
detail
 62
    16
  6
CONTINUOUS
370
     5
100
AcDbLine
 10
18.31535082
 20
-55.79735241
 30
0.0
 11
18.3152208
 21
-55.79784836
 31
0.0
  0
LINE
  5
417
100
AcDbEntity
  8
detail
 62
    16
  6
CONTINUOUS
370
     5
100
AcDbLine
 10
18.31564069
 20
-55.79730986
 30
0.0
 11
18.31549579
 21
-55.79786263
 31
0.0
  0
LINE
  5
418
100
AcDbEntity
  8
detail
 62
    16
  6
CONTINUOUS
370
     5
100
AcDbLine
 10
18.31534307
 20
-55.79682205
 30
0.0
 11
18.31564069
 21
-55.79730986
 31
0.0
  0
LINE
  5
419
100
AcDbEntity
  8
detail
 62
    16
  6
CONTINUOUS
370
     5
100
AcDbLine
 10
18.3158317
 20
-55.77367399
 30
0.0
 11
18.31657174
 21
-55.77316387
 31
0.0
  0
LINE
  5
41A
100
AcDbEntity
  8
detail
 62
    16
  6
CONTINUOUS
370
     5
100
AcDbLine
 10
18.31671745
 20
-55.7728815
 30
0.0
 11
18.316651
 21
-55.76830316
 31
0.0
  0
LINE
  5
41B
100
AcDbEntity
  8
detail
 62
    16
  6
CONTINUOUS
370
     5
100
AcDbLine
 10
18.31962316
 20
-55.7687879
 30
0.0
 11
18.31961645
 21
-55.76826223
 31
0.0
  0
LINE
  5
41C
100
AcDbEntity
  8
detail
 62
    16
  6
CONTINUOUS
370
     5
100
AcDbLine
 10
18.32027758
 20
-55.76872046
 30
0.0
 11
18.32013282
 21
-55.76797815
 31
0.0
  0
LINE
  5
41D
100
AcDbEntity
  8
detail
 62
    16
  6
CONTINUOUS
370
     5
100
AcDbLine
 10
18.32001292
 20
-55.76877189
 30
0.0
 11
18.31985787
 21
-55.76798949
 31
0.0
  0
LINE
  5
41E
100
AcDbEntity
  8
detail
 62
    16
  6
CONTINUOUS
370
     5
100
AcDbLine
 10
18.31989279
 20
-55.76878582
 30
0.0
 11
18.31986636
 21
-55.76803745
 31
0.0
  0
LINE
  5
41F
100
AcDbEntity
  8
detail
 62
    16
  6
CONTINUOUS
370
     5
100
AcDbLine
 10
18.31752466
 20
-55.77209033
 30
0.0
 11
18.31719482
 21
-55.76838532
 31
0.0
  0
LINE
  5
420
100
AcDbEntity
  8
detail
 62
    16
  6
CONTINUOUS
370
     5
100
AcDbLine
 10
18.31725611
 20
-55.77211424
 30
0.0
 11
18.31692138
 21
-55.76835435
 31
0.0
  0
LINE
  5
421
100
AcDbEntity
  8
detail
 62
    16
  6
CONTINUOUS
370
     5
100
AcDbLine
 10
18.31698703
 20
-55.77287758
 30
0.0
 11
18.31692058
 21
-55.76829925
 31
0.0
  0
LINE
  5
422
100
AcDbEntity
  8
detail
 62
    16
  6
CONTINUOUS
370
     5
100
AcDbLine
 10
18.31598472
 20
-55.77389598
 30
0.0
 11
18.31672476
 21
-55.77338585
 31
0.0
  0
LINE
  5
423
100
AcDbEntity
  8
detail
 62
    16
  6
CONTINUOUS
370
     5
100
AcDbLine
 10
18.31878656
 20
-55.80968804
 30
0.0
 11
18.3186138
 21
-55.80447578
 31
0.0
  0
LINE
  5
424
100
AcDbEntity
  8
detail
 62
    16
  6
CONTINUOUS
370
     5
100
AcDbLine
 10
18.3185171
 20
-55.80969697
 30
0.0
 11
18.31834433
 21
-55.80448471
 31
0.0
  0
LINE
  5
425
100
AcDbEntity
  8
detail
 62
    16
  6
CONTINUOUS
370
     5
100
AcDbLine
 10
18.31777504
 20
-55.77238648
 30
0.0
 11
18.31917203
 21
-55.77275204
 31
0.0
  0
LINE
  5
426
100
AcDbEntity
  8
detail
 62
    16
  6
CONTINUOUS
370
     5
100
AcDbLine
 10
18.31770678
 20
-55.77264731
 30
0.0
 11
18.31910378
 21
-55.77301287
 31
0.0
  0
LINE
  5
427
100
AcDbEntity
  8
detail
 62
    16
  6
CONTINUOUS
370
     5
100
AcDbLine
 10
18.3205972
 20
-55.81004201
 30
0.0
 11
18.31999843
 21
-55.80976167
 31
0.0
  0
LINE
  5
428
100
AcDbEntity
  8
detail
 62
    16
  6
CONTINUOUS
370
     5
100
AcDbLine
 10
18.32074351
 20
-55.8097967
 30
0.0
 11
18.32014474
 21
-55.80951636
 31
0.0
  0
LINE
  5
429
100
AcDbEntity
  8
detail
 62
    16
  6
CONTINUOUS
370
     5
100
AcDbLine
 10
18.32318603
 20
-55.80436545
 30
0.0
 11
18.32331945
 21
-55.8078998
 31
0.0
  0
LINE
  5
42A
100
AcDbEntity
  8
detail
 62
    16
  6
CONTINUOUS
370
     5
100
AcDbLine
 10
18.32127882
 20
-55.80946978
 30
0.0
 11
18.32123599
 21
-55.80961043
 31
0.0
  0
LINE
  5
42B
100
AcDbEntity
  8
detail
 62
    16
  6
CONTINUOUS
370
     5
100
AcDbLine
 10
18.32088986
 20
-55.80955134
 30
0.0
 11
18.32021254
 21
-55.80925541
 31
0.0
  0
LINE
  5
42C
100
AcDbEntity
  8
detail
 62
    16
  6
CONTINUOUS
370
     5
100
AcDbLine
 10
18.32291661
 20
-55.80437562
 30
0.0
 11
18.32303623
 21
-55.80793682
 31
0.0
  0
LINE
  5
42D
100
AcDbEntity
  8
detail
 62
    16
  6
CONTINUOUS
370
     5
100
AcDbLine
 10
18.32303623
 20
-55.80793682
 30
0.0
 11
18.32279111
 21
-55.80438126
 31
0.0
  0
LINE
  5
42E
100
AcDbEntity
  8
detail
 62
    16
  6
CONTINUOUS
370
     5
100
AcDbLine
 10
18.32275295
 20
-55.80797384
 30
0.0
 11
18.32252206
 21
-55.80439864
 31
0.0
  0
LINE
  5
42F
100
AcDbEntity
  8
detail
 62
    16
  6
CONTINUOUS
370
     5
100
AcDbLine
 10
18.32036007
 20
-55.80904745
 30
0.0
 11
18.32127882
 21
-55.80946978
 31
0.0
  0
LINE
  5
430
100
AcDbEntity
  8
detail
 62
    16
  6
CONTINUOUS
370
     5
100
AcDbLine
 10
18.31911872
 20
-55.89245088
 30
0.0
 11
18.31928485
 21
-55.88787508
 31
0.0
  0
LINE
  5
431
100
AcDbEntity
  8
detail
 62
    16
  6
CONTINUOUS
370
     5
100
AcDbLine
 10
18.32222857
 20
-55.88851012
 30
0.0
 11
18.32224855
 21
-55.88798479
 31
0.0
  0
LINE
  5
432
100
AcDbEntity
  8
detail
 62
    16
  6
CONTINUOUS
370
     5
100
AcDbLine
 10
18.32288556
 20
-55.888476
 30
0.0
 11
18.32277868
 21
-55.88772729
 31
0.0
  0
LINE
  5
433
100
AcDbEntity
  8
detail
 62
    16
  6
CONTINUOUS
370
     5
100
AcDbLine
 10
18.32261863
 20
-55.88851392
 30
0.0
 11
18.32250352
 21
-55.88772466
 31
0.0
  0
LINE
  5
434
100
AcDbEntity
  8
detail
 62
    16
  6
CONTINUOUS
370
     5
100
AcDbLine
 10
18.32249795
 20
-55.88852173
 30
0.0
 11
18.32250956
 21
-55.88777298
 31
0.0
  0
LINE
  5
435
100
AcDbEntity
  8
detail
 62
    16
  6
CONTINUOUS
370
     5
100
AcDbLine
 10
18.31996507
 20
-55.89170172
 30
0.0
 11
18.3198238
 21
-55.88798474
 31
0.0
  0
LINE
  5
436
100
AcDbEntity
  8
detail
 62
    16
  6
CONTINUOUS
370
     5
100
AcDbLine
 10
18.31969565
 20
-55.89171196
 30
0.0
 11
18.31955229
 21
-55.88793992
 31
0.0
  0
LINE
  5
437
100
AcDbEntity
  8
detail
 62
    16
  6
CONTINUOUS
370
     5
100
AcDbLine
 10
18.31938815
 20
-55.89246066
 30
0.0
 11
18.31955429
 21
-55.88788486
 31
0.0
  0
LINE
  5
438
100
AcDbEntity
  8
detail
 62
    16
  6
CONTINUOUS
370
     5
100
AcDbLine
 10
18.3160084
 20
-55.86531357
 30
0.0
 11
18.31624302
 21
-55.86485768
 31
0.0
  0
LINE
  5
439
100
AcDbEntity
  8
detail
 62
    16
  6
CONTINUOUS
370
     5
100
AcDbLine
 10
18.31624302
 20
-55.86485768
 30
0.0
 11
18.31607742
 21
-55.86437245
 31
0.0
  0
LINE
  5
43A
100
AcDbEntity
  8
detail
 62
    16
  6
CONTINUOUS
370
     5
100
AcDbLine
 10
18.31627372
 20
-55.86538721
 30
0.0
 11
18.31653522
 21
-55.86487911
 31
0.0
  0
LINE
  5
43B
100
AcDbEntity
  8
detail
 62
    16
  6
CONTINUOUS
370
     5
100
AcDbLine
 10
18.31653522
 20
-55.86487911
 30
0.0
 11
18.31635064
 21
-55.8643383
 31
0.0
  0
LINE
  5
43C
100
AcDbEntity
  8
detail
 62
    16
  6
CONTINUOUS
370
     5
100
AcDbLine
 10
18.31612865
 20
-55.87635535
 30
0.0
 11
18.31637312
 21
-55.87680603
 31
0.0
  0
LINE
  5
43D
100
AcDbEntity
  8
detail
 62
    16
  6
CONTINUOUS
370
     5
100
AcDbLine
 10
18.31637312
 20
-55.87680603
 30
0.0
 11
18.31621808
 21
-55.87729474
 31
0.0
  0
LINE
  5
43E
100
AcDbEntity
  8
detail
 62
    16
  6
CONTINUOUS
370
     5
100
AcDbLine
 10
18.31666478
 20
-55.87677827
 30
0.0
 11
18.31649199
 21
-55.87732296
 31
0.0
  0
LINE
  5
43F
100
AcDbEntity
  8
detail
 62
    16
  6
CONTINUOUS
370
     5
100
AcDbLine
 10
18.31639231
 20
-55.87627596
 30
0.0
 11
18.31666478
 21
-55.87677827
 31
0.0
  0
LINE
  5
440
100
AcDbEntity
  8
detail
 62
    16
  6
CONTINUOUS
370
     5
100
AcDbLine
 10
18.31805581
 20
-55.85318259
 30
0.0
 11
18.3188208
 21
-55.8527107
 31
0.0
  0
LINE
  5
441
100
AcDbEntity
  8
detail
 62
    16
  6
CONTINUOUS
370
     5
100
AcDbLine
 10
18.31898066
 20
-55.8524361
 30
0.0
 11
18.31914679
 21
-55.8478603
 31
0.0
  0
LINE
  5
442
100
AcDbEntity
  8
detail
 62
    16
  6
CONTINUOUS
370
     5
100
AcDbLine
 10
18.32209051
 20
-55.84849534
 30
0.0
 11
18.3221105
 21
-55.84797001
 31
0.0
  0
LINE
  5
443
100
AcDbEntity
  8
detail
 62
    16
  6
CONTINUOUS
370
     5
100
AcDbLine
 10
18.3227475
 20
-55.84846122
 30
0.0
 11
18.32264063
 21
-55.84771251
 31
0.0
  0
LINE
  5
444
100
AcDbEntity
  8
detail
 62
    16
  6
CONTINUOUS
370
     5
100
AcDbLine
 10
18.32248057
 20
-55.84849914
 30
0.0
 11
18.32236546
 21
-55.84770988
 31
0.0
  0
LINE
  5
445
100
AcDbEntity
  8
detail
 62
    16
  6
CONTINUOUS
370
     5
100
AcDbLine
 10
18.32235989
 20
-55.84850695
 30
0.0
 11
18.3223715
 21
-55.8477582
 31
0.0
  0
LINE
  5
446
100
AcDbEntity
  8
detail
 62
    16
  6
CONTINUOUS
370
     5
100
AcDbLine
 10
18.31982701
 20
-55.85168694
 30
0.0
 11
18.31968574
 21
-55.84796996
 31
0.0
  0
LINE
  5
447
100
AcDbEntity
  8
detail
 62
    16
  6
CONTINUOUS
370
     5
100
AcDbLine
 10
18.3195576
 20
-55.85169718
 30
0.0
 11
18.31941423
 21
-55.84792514
 31
0.0
  0
LINE
  5
448
100
AcDbEntity
  8
detail
 62
    16
  6
CONTINUOUS
370
     5
100
AcDbLine
 10
18.31925009
 20
-55.85244588
 30
0.0
 11
18.31941623
 21
-55.84787008
 31
0.0
  0
LINE
  5
449
100
AcDbEntity
  8
detail
 62
    16
  6
CONTINUOUS
370
     5
100
AcDbLine
 10
18.31819736
 20
-55.85341206
 30
0.0
 11
18.31896235
 21
-55.85294017
 31
0.0
  0
LINE
  5
44A
100
AcDbEntity
  8
detail
 62
    16
  6
CONTINUOUS
370
     5
100
AcDbLine
 10
18.319178
 20
-55.88930022
 30
0.0
 11
18.31927015
 21
-55.88408591
 31
0.0
  0
LINE
  5
44B
100
AcDbEntity
  8
detail
 62
    16
  6
CONTINUOUS
370
     5
100
AcDbLine
 10
18.31890843
 20
-55.88929546
 30
0.0
 11
18.31900058
 21
-55.88408115
 31
0.0
  0
LINE
  5
44C
100
AcDbEntity
  8
detail
 62
    16
  6
CONTINUOUS
370
     5
100
AcDbLine
 10
18.32006202
 20
-55.85199543
 30
0.0
 11
18.32143866
 21
-55.85243146
 31
0.0
  0
LINE
  5
44D
100
AcDbEntity
  8
detail
 62
    16
  6
CONTINUOUS
370
     5
100
AcDbLine
 10
18.31998061
 20
-55.85225246
 30
0.0
 11
18.32135725
 21
-55.85268849
 31
0.0
  0
LINE
  5
44E
100
AcDbEntity
  8
detail
 62
    16
  6
CONTINUOUS
370
     5
100
AcDbLine
 10
18.32096833
 20
-55.88974568
 30
0.0
 11
18.32038457
 21
-55.8894353
 31
0.0
  0
LINE
  5
44F
100
AcDbEntity
  8
detail
 62
    16
  6
CONTINUOUS
370
     5
100
AcDbLine
 10
18.32112691
 20
-55.88950812
 30
0.0
 11
18.32054315
 21
-55.88919774
 31
0.0
  0
LINE
  5
450
100
AcDbEntity
  8
detail
 62
    16
  6
CONTINUOUS
370
     5
100
AcDbLine
 10
18.32384208
 20
-55.88420791
 30
0.0
 11
18.32379585
 21
-55.88774448
 31
0.0
  0
LINE
  5
451
100
AcDbEntity
  8
detail
 62
    16
  6
CONTINUOUS
370
     5
100
AcDbLine
 10
18.32167813
 20
-55.88920881
 30
0.0
 11
18.32162821
 21
-55.8893471
 31
0.0
  0
LINE
  5
452
100
AcDbEntity
  8
detail
 62
    16
  6
CONTINUOUS
370
     5
100
AcDbLine
 10
18.32128553
 20
-55.8892705
 30
0.0
 11
18.32062411
 21
-55.88894057
 31
0.0
  0
LINE
  5
453
100
AcDbEntity
  8
detail
 62
    16
  6
CONTINUOUS
370
     5
100
AcDbLine
 10
18.32357249
 20
-55.88420439
 30
0.0
 11
18.32351112
 21
-55.88776707
 31
0.0
  0
LINE
  5
454
100
AcDbEntity
  8
detail
 62
    16
  6
CONTINUOUS
370
     5
100
AcDbLine
 10
18.32351112
 20
-55.88776707
 30
0.0
 11
18.32344687
 21
-55.88420365
 31
0.0
  0
LINE
  5
455
100
AcDbEntity
  8
detail
 62
    16
  6
CONTINUOUS
370
     5
100
AcDbLine
 10
18.32322632
 20
-55.88778966
 30
0.0
 11
18.32317729
 21
-55.88420734
 31
0.0
  0
LINE
  5
456
100
AcDbEntity
  8
detail
 62
    16
  6
CONTINUOUS
370
     5
100
AcDbLine
 10
18.32078201
 20
-55.88874037
 30
0.0
 11
18.32167813
 21
-55.88920881
 31
0.0
  0
LINE
  5
457
100
AcDbEntity
  8
detail
 62
    16
  6
CONTINUOUS
370
     5
100
AcDbLine
 10
18.36398912
 20
-55.72053688
 30
0.0
 11
18.38127549
 21
-55.70325051
 31
0.0
  0
LINE
  5
458
100
AcDbEntity
  8
detail
 62
    16
  6
CONTINUOUS
370
     5
100
AcDbLine
 10
18.38127549
 20
-55.70325051
 30
0.0
 11
18.40572211
 21
-55.70325051
 31
0.0
  0
LINE
  5
459
100
AcDbEntity
  8
detail
 62
    16
  6
CONTINUOUS
370
     5
100
AcDbLine
 10
18.40572211
 20
-55.70325051
 30
0.0
 11
18.42300848
 21
-55.72053688
 31
0.0
  0
LINE
  5
45A
100
AcDbEntity
  8
detail
 62
    16
  6
CONTINUOUS
370
     5
100
AcDbLine
 10
18.42300848
 20
-55.72053688
 30
0.0
 11
18.42300848
 21
-55.7449835
 31
0.0
  0
LINE
  5
45B
100
AcDbEntity
  8
detail
 62
    16
  6
CONTINUOUS
370
     5
100
AcDbLine
 10
18.42300848
 20
-55.7449835
 30
0.0
 11
18.40572211
 21
-55.76226987
 31
0.0
  0
LINE
  5
45C
100
AcDbEntity
  8
detail
 62
    16
  6
CONTINUOUS
370
     5
100
AcDbLine
 10
18.40572211
 20
-55.76226987
 30
0.0
 11
18.38127549
 21
-55.76226987
 31
0.0
  0
LINE
  5
45D
100
AcDbEntity
  8
detail
 62
    16
  6
CONTINUOUS
370
     5
100
AcDbLine
 10
18.38127549
 20
-55.76226987
 30
0.0
 11
18.36398912
 21
-55.7449835
 31
0.0
  0
LINE
  5
45E
100
AcDbEntity
  8
detail
 62
    16
  6
CONTINUOUS
370
     5
100
AcDbLine
 10
18.3653779
 20
-55.74440825
 30
0.0
 11
18.3653779
 21
-55.72111213
 31
0.0
  0
LINE
  5
45F
100
AcDbEntity
  8
detail
 62
    16
  6
CONTINUOUS
370
     5
100
AcDbLine
 10
18.3653779
 20
-55.72111213
 30
0.0
 11
18.38185074
 21
-55.70463928
 31
0.0
  0
LINE
  5
460
100
AcDbEntity
  8
detail
 62
    16
  6
CONTINUOUS
370
     5
100
AcDbLine
 10
18.38185074
 20
-55.70463928
 30
0.0
 11
18.40514686
 21
-55.70463928
 31
0.0
  0
LINE
  5
461
100
AcDbEntity
  8
detail
 62
    16
  6
CONTINUOUS
370
     5
100
AcDbLine
 10
18.40514686
 20
-55.70463928
 30
0.0
 11
18.4216197
 21
-55.72111213
 31
0.0
  0
LINE
  5
462
100
AcDbEntity
  8
detail
 62
    16
  6
CONTINUOUS
370
     5
100
AcDbLine
 10
18.4216197
 20
-55.72111213
 30
0.0
 11
18.4216197
 21
-55.74440825
 31
0.0
  0
LINE
  5
463
100
AcDbEntity
  8
detail
 62
    16
  6
CONTINUOUS
370
     5
100
AcDbLine
 10
18.4216197
 20
-55.74440825
 30
0.0
 11
18.40514686
 21
-55.76088109
 31
0.0
  0
LINE
  5
464
100
AcDbEntity
  8
detail
 62
    16
  6
CONTINUOUS
370
     5
100
AcDbLine
 10
18.40514686
 20
-55.76088109
 30
0.0
 11
18.38185074
 21
-55.76088109
 31
0.0
  0
LINE
  5
465
100
AcDbEntity
  8
detail
 62
    16
  6
CONTINUOUS
370
     5
100
AcDbLine
 10
18.38185074
 20
-55.76088109
 30
0.0
 11
18.3653779
 21
-55.74440825
 31
0.0
  0
LINE
  5
466
100
AcDbEntity
  8
detail
 62
    16
  6
CONTINUOUS
370
     5
100
AcDbLine
 10
18.45763431
 20
-55.78052943
 30
0.0
 11
18.44451911
 21
-55.78052943
 31
0.0
  0
LINE
  5
467
100
AcDbEntity
  8
detail
 62
    16
  6
CONTINUOUS
370
     5
100
AcDbLine
 10
18.32981404
 20
-55.80334692
 30
0.0
 11
18.3277926
 21
-55.81050293
 31
0.0
  0
LINE
  5
468
100
AcDbEntity
  8
detail
 62
    16
  6
CONTINUOUS
370
     5
100
AcDbLine
 10
18.31929415
 20
-55.83296703
 30
0.0
 11
18.32703365
 21
-55.83296703
 31
0.0
  0
LINE
  5
469
100
AcDbEntity
  8
detail
 62
    16
  6
CONTINUOUS
370
     5
100
AcDbLine
 10
18.38859982
 20
-55.72786121
 30
0.0
 11
18.38859982
 21
-55.73765916
 31
0.0
  0
LINE
  5
46A
100
AcDbEntity
  8
detail
 62
    16
  6
CONTINUOUS
370
     5
100
AcDbLine
 10
18.38859982
 20
-55.72786121
 30
0.0
 11
18.39839778
 21
-55.72786121
 31
0.0
  0
LINE
  5
46B
100
AcDbEntity
  8
detail
 62
    16
  6
CONTINUOUS
370
     5
100
AcDbLine
 10
18.39839778
 20
-55.72786121
 30
0.0
 11
18.39839778
 21
-55.73765916
 31
0.0
  0
LINE
  5
46C
100
AcDbEntity
  8
detail
 62
    16
  6
CONTINUOUS
370
     5
100
AcDbLine
 10
18.38859982
 20
-55.73765916
 30
0.0
 11
18.39839778
 21
-55.73765916
 31
0.0
  0
LINE
  5
46D
100
AcDbEntity
  8
detail
 62
    16
  6
CONTINUOUS
370
     5
100
AcDbLine
 10
18.3099791
 20
-55.82751096
 30
0.0
 11
18.31065856
 21
-55.83255335
 31
0.0
  0
ARC
  5
46E
100
AcDbEntity
  8
detail
 62
    16
  6
CONTINUOUS
370
     5
100
AcDbCircle
 10
18.3934988
 20
-55.73276019
 30
0.0
 40
0.046
100
AcDbArc
 50
11.491649
 51
81.823224
  0
ARC
  5
46F
100
AcDbEntity
  8
detail
 62
    16
  6
CONTINUOUS
370
     5
100
AcDbCircle
 10
18.3934988
 20
-55.73276019
 30
0.0
 40
0.039
100
AcDbArc
 50
89.461019
 51
3.853854
  0
ARC
  5
470
100
AcDbEntity
  8
detail
 62
    16
  6
CONTINUOUS
370
     5
100
AcDbCircle
 10
18.38704251
 20
-55.83009259
 30
0.0
 40
0.07110541
100
AcDbArc
 50
185.86280002
 51
195.70969702
  0
ARC
  5
471
100
AcDbEntity
  8
detail
 62
    16
  6
CONTINUOUS
370
     5
100
AcDbCircle
 10
18.38704251
 20
-55.83009259
 30
0.0
 40
0.07137502
100
AcDbArc
 50
176.187196
 51
185.06030502
  0
ARC
  5
472
100
AcDbEntity
  8
detail
 62
    16
  6
CONTINUOUS
370
     5
100
AcDbCircle
 10
18.38704251
 20
-55.83009259
 30
0.0
 40
0.07137502
100
AcDbArc
 50
185.81781302
 51
195.70969702
  0
ARC
  5
473
100
AcDbEntity
  8
detail
 62
    16
  6
CONTINUOUS
370
     5
100
AcDbCircle
 10
18.32101365
 20
-55.81301529
 30
0.0
 40
0.00060663
100
AcDbArc
 50
329.61035302
 51
66.28708501
  0
ARC
  5
474
100
AcDbEntity
  8
detail
 62
    16
  6
CONTINUOUS
370
     5
100
AcDbCircle
 10
18.3210425
 20
-55.81302856
 30
0.0
 40
0.00033701
100
AcDbArc
 50
1.20309698
 51
66.787993
  0
ARC
  5
475
100
AcDbEntity
  8
detail
 62
    16
  6
CONTINUOUS
370
     5
100
AcDbCircle
 10
18.38704251
 20
-55.83009259
 30
0.0
 40
0.07137502
100
AcDbArc
 50
166.632902
 51
175.429689
  0
ARC
  5
476
100
AcDbEntity
  8
detail
 62
    16
  6
CONTINUOUS
370
     5
100
AcDbCircle
 10
18.38704251
 20
-55.83009259
 30
0.0
 40
0.07110541
100
AcDbArc
 50
166.632902
 51
175.384715
  0
ARC
  5
477
100
AcDbEntity
  8
detail
 62
    16
  6
CONTINUOUS
370
     5
100
AcDbCircle
 10
18.38704251
 20
-55.83009259
 30
0.0
 40
0.07110541
100
AcDbArc
 50
176.232189
 51
185.01532502
  0
ARC
  5
478
100
AcDbEntity
  8
detail
 62
    16
  6
CONTINUOUS
370
     5
100
AcDbCircle
 10
18.35039404
 20
-55.82656714
 30
0.0
 40
0.0320208
100
AcDbArc
 50
154.974186
 51
211.95055102
  0
ARC
  5
479
100
AcDbEntity
  8
detail
 62
    16
  6
CONTINUOUS
370
     5
100
AcDbCircle
 10
18.35039404
 20
-55.82656714
 30
0.0
 40
0.03175157
100
AcDbArc
 50
155.345613
 51
211.97619202
  0
ARC
  5
47A
100
AcDbEntity
  8
detail
 62
    16
  6
CONTINUOUS
370
     5
100
AcDbCircle
 10
18.31865806
 20
-55.84932707
 30
0.0
 40
0.00033702
100
AcDbArc
 50
195.70969701
 51
358.98758501
  0
ARC
  5
47B
100
AcDbEntity
  8
detail
 62
    16
  6
CONTINUOUS
370
     5
100
AcDbCircle
 10
18.32104156
 20
-55.84415325
 30
0.0
 40
0.0022243
100
AcDbArc
 50
357.45217302
 51
178.98758
  0
ARC
  5
47C
100
AcDbEntity
  8
detail
 62
    16
  6
CONTINUOUS
370
     5
100
AcDbCircle
 10
18.31865806
 20
-55.84932707
 30
0.0
 40
6.7403000013571E-05
100
AcDbArc
 50
195.70969708
 51
358.98758502
  0
ARC
  5
47D
100
AcDbEntity
  8
detail
 62
    16
  6
CONTINUOUS
370
     5
100
AcDbCircle
 10
18.32104156
 20
-55.84415325
 30
0.0
 40
0.00195469
100
AcDbArc
 50
357.45217302
 51
178.98758
  0
ARC
  5
47E
100
AcDbEntity
  8
detail
 62
    16
  6
CONTINUOUS
370
     5
100
AcDbCircle
 10
18.32204438
 20
-55.84416423
 30
0.0
 40
0.00134806
100
AcDbArc
 50
355.91910903
 51
28.92946498
  0
ARC
  5
47F
100
AcDbEntity
  8
detail
 62
    16
  6
CONTINUOUS
370
     5
100
AcDbCircle
 10
18.32204438
 20
-55.84416423
 30
0.0
 40
0.00161767
100
AcDbArc
 50
355.91910901
 51
28.92946501
  0
ARC
  5
480
100
AcDbEntity
  8
detail
 62
    16
  6
CONTINUOUS
370
     5
100
AcDbCircle
 10
18.32071514
 20
-55.80795668
 30
0.0
 40
0.00175248
100
AcDbArc
 50
6.91623
 51
177.920678
  0
ARC
  5
481
100
AcDbEntity
  8
detail
 62
    16
  6
CONTINUOUS
370
     5
100
AcDbCircle
 10
18.32071514
 20
-55.80795668
 30
0.0
 40
0.00148287
100
AcDbArc
 50
8.297827
 51
177.920678
  0
ARC
  5
482
100
AcDbEntity
  8
detail
 62
    16
  6
CONTINUOUS
370
     5
100
AcDbCircle
 10
18.32071514
 20
-55.80795668
 30
0.0
 40
0.00121325
100
AcDbArc
 50
357.82107102
 51
182.17665402
  0
ARC
  5
483
100
AcDbEntity
  8
detail
 62
    16
  6
CONTINUOUS
370
     5
100
AcDbCircle
 10
18.32223757
 20
-55.8085407
 30
0.0
 40
0.00033028
100
AcDbArc
 50
177.82105899
 51
8.12421699
  0
ARC
  5
484
100
AcDbEntity
  8
detail
 62
    16
  6
CONTINUOUS
370
     5
100
AcDbCircle
 10
18.32223757
 20
-55.8085407
 30
0.0
 40
6.0663000025910E-05
100
AcDbArc
 50
179.11150105
 51
8.29782691
  0
ARC
  5
485
100
AcDbEntity
  8
detail
 62
    16
  6
CONTINUOUS
370
     5
100
AcDbCircle
 10
18.31998081
 20
-55.81170695
 30
0.0
 40
0.00060663
100
AcDbArc
 50
182.17665405
 51
252.42508098
  0
ARC
  5
486
100
AcDbEntity
  8
detail
 62
    16
  6
CONTINUOUS
370
     5
100
AcDbCircle
 10
18.31998081
 20
-55.81170695
 30
0.0
 40
0.00033702
100
AcDbArc
 50
182.17665403
 51
252.42508099
  0
ARC
  5
487
100
AcDbEntity
  8
detail
 62
    16
  6
CONTINUOUS
370
     5
100
AcDbCircle
 10
18.31846089
 20
-55.81245667
 30
0.0
 40
0.00033701
100
AcDbArc
 50
301.66865795
 51
357.92068908
  0
ARC
  5
488
100
AcDbEntity
  8
detail
 62
    16
  6
CONTINUOUS
370
     5
100
AcDbCircle
 10
18.31819132
 20
-55.81373169
 30
0.0
 40
0.00033702
100
AcDbArc
 50
121.66864705
 51
166.63290197
  0
ARC
  5
489
100
AcDbEntity
  8
detail
 62
    16
  6
CONTINUOUS
370
     5
100
AcDbCircle
 10
18.31846089
 20
-55.81245667
 30
0.0
 40
0.00060663
100
AcDbArc
 50
301.66865803
 51
357.92068901
  0
ARC
  5
48A
100
AcDbEntity
  8
detail
 62
    16
  6
CONTINUOUS
370
     5
100
AcDbCircle
 10
18.31819132
 20
-55.81373169
 30
0.0
 40
0.00060663
100
AcDbArc
 50
121.66864699
 51
166.63290203
  0
ARC
  5
48B
100
AcDbEntity
  8
detail
 62
    16
  6
CONTINUOUS
370
     5
100
AcDbCircle
 10
18.3203759
 20
-55.84911046
 30
0.0
 40
0.00040442
100
AcDbArc
 50
56.51308499
 51
252.52613503
  0
ARC
  5
48C
100
AcDbEntity
  8
detail
 62
    16
  6
CONTINUOUS
370
     5
100
AcDbCircle
 10
18.32040065
 20
-55.84910196
 30
0.0
 40
0.00013481
100
AcDbArc
 50
72.52611996
 51
252.52613506
  0
ARC
  5
48D
100
AcDbEntity
  8
detail
 62
    16
  6
CONTINUOUS
370
     5
100
AcDbCircle
 10
18.32159561
 20
-55.84793729
 30
0.0
 40
0.00145228
100
AcDbArc
 50
250.15309602
 51
4.535121
  0
ARC
  5
48E
100
AcDbEntity
  8
detail
 62
    16
  6
CONTINUOUS
370
     5
100
AcDbCircle
 10
18.32159561
 20
-55.84793729
 30
0.0
 40
0.00173797
100
AcDbArc
 50
247.88434501
 51
4.535121
  0
ARC
  5
48F
100
AcDbEntity
  8
detail
 62
    16
  6
CONTINUOUS
370
     5
100
AcDbCircle
 10
18.32159561
 20
-55.84793729
 30
0.0
 40
0.0020236
100
AcDbArc
 50
246.24700102
 51
4.535121
  0
ARC
  5
490
100
AcDbEntity
  8
detail
 62
    16
  6
CONTINUOUS
370
     5
100
AcDbCircle
 10
18.3306095
 20
-55.68348448
 30
0.0
 40
0.00228058
100
AcDbArc
 50
214.34961002
 51
49.645282
  0
ARC
  5
491
100
AcDbEntity
  8
detail
 62
    16
  6
CONTINUOUS
370
     5
100
AcDbCircle
 10
18.3306095
 20
-55.68348448
 30
0.0
 40
0.00318044
100
AcDbArc
 50
217.29213002
 51
27.829797
  0
ARC
  5
492
100
AcDbEntity
  8
detail
 62
    16
  6
CONTINUOUS
370
     5
100
AcDbCircle
 10
18.34605266
 20
-55.81566105
 30
0.0
 40
0.01897461
100
AcDbArc
 50
164.226014
 51
180.0
  0
ARC
  5
493
100
AcDbEntity
  8
detail
 62
    16
  6
CONTINUOUS
370
     5
100
AcDbCircle
 10
18.38597118
 20
-55.71915291
 30
0.0
 40
0.07110541
100
AcDbArc
 50
178.51218
 51
188.35908802
  0
ARC
  5
494
100
AcDbEntity
  8
detail
 62
    16
  6
CONTINUOUS
370
     5
100
AcDbCircle
 10
18.38597118
 20
-55.71915291
 30
0.0
 40
0.07137502
100
AcDbArc
 50
168.836587
 51
177.709685
  0
ARC
  5
495
100
AcDbEntity
  8
detail
 62
    16
  6
CONTINUOUS
370
     5
100
AcDbCircle
 10
18.38597118
 20
-55.71915291
 30
0.0
 40
0.07137502
100
AcDbArc
 50
178.467193
 51
188.35908802
  0
ARC
  5
496
100
AcDbEntity
  8
detail
 62
    16
  6
CONTINUOUS
370
     5
100
AcDbCircle
 10
18.32266983
 20
-55.69376818
 30
0.0
 40
0.00060663
100
AcDbArc
 50
322.25974303
 51
58.93647598
  0
ARC
  5
497
100
AcDbEntity
  8
detail
 62
    16
  6
CONTINUOUS
370
     5
100
AcDbCircle
 10
18.32269675
 20
-55.69378503
 30
0.0
 40
0.00033701
100
AcDbArc
 50
353.85249801
 51
59.43738301
  0
ARC
  5
498
100
AcDbEntity
  8
detail
 62
    16
  6
CONTINUOUS
370
     5
100
AcDbCircle
 10
18.38597118
 20
-55.71915291
 30
0.0
 40
0.07137502
100
AcDbArc
 50
159.282293
 51
168.079079
  0
ARC
  5
499
100
AcDbEntity
  8
detail
 62
    16
  6
CONTINUOUS
370
     5
100
AcDbCircle
 10
18.38597118
 20
-55.71915291
 30
0.0
 40
0.07110541
100
AcDbArc
 50
159.282293
 51
168.034105
  0
ARC
  5
49A
100
AcDbEntity
  8
detail
 62
    16
  6
CONTINUOUS
370
     5
100
AcDbCircle
 10
18.38597118
 20
-55.71915291
 30
0.0
 40
0.07110541
100
AcDbArc
 50
168.881579
 51
177.664705
  0
ARC
  5
49B
100
AcDbEntity
  8
detail
 62
    16
  6
CONTINUOUS
370
     5
100
AcDbCircle
 10
18.35007494
 20
-55.7109676
 30
0.0
 40
0.0320208
100
AcDbArc
 50
147.623577
 51
204.59994102
  0
ARC
  5
49C
100
AcDbEntity
  8
detail
 62
    16
  6
CONTINUOUS
370
     5
100
AcDbCircle
 10
18.35007494
 20
-55.7109676
 30
0.0
 40
0.03175157
100
AcDbArc
 50
147.995003
 51
204.62558202
  0
ARC
  5
49D
100
AcDbEntity
  8
detail
 62
    16
  6
CONTINUOUS
370
     5
100
AcDbCircle
 10
18.31568785
 20
-55.72948016
 30
0.0
 40
0.00033702
100
AcDbArc
 50
188.35908803
 51
351.63697603
  0
ARC
  5
49E
100
AcDbEntity
  8
detail
 62
    16
  6
CONTINUOUS
370
     5
100
AcDbCircle
 10
18.3187137
 20
-55.72465381
 30
0.0
 40
0.0022243
100
AcDbArc
 50
350.10156402
 51
171.636971
  0
ARC
  5
49F
100
AcDbEntity
  8
detail
 62
    16
  6
CONTINUOUS
370
     5
100
AcDbCircle
 10
18.31568785
 20
-55.72948016
 30
0.0
 40
6.7403000012073E-05
100
AcDbArc
 50
188.35908796
 51
351.63697612
  0
ARC
  5
4A0
100
AcDbEntity
  8
detail
 62
    16
  6
CONTINUOUS
370
     5
100
AcDbCircle
 10
18.3187137
 20
-55.72465381
 30
0.0
 40
0.00195469
100
AcDbArc
 50
350.10156402
 51
171.636971
  0
ARC
  5
4A1
100
AcDbEntity
  8
detail
 62
    16
  6
CONTINUOUS
370
     5
100
AcDbCircle
 10
18.31970687
 20
-55.724793
 30
0.0
 40
0.00134806
100
AcDbArc
 50
348.56850001
 51
21.578856
  0
ARC
  5
4A2
100
AcDbEntity
  8
detail
 62
    16
  6
CONTINUOUS
370
     5
100
AcDbCircle
 10
18.31970687
 20
-55.724793
 30
0.0
 40
0.00161767
100
AcDbArc
 50
348.56850002
 51
21.578856
  0
ARC
  5
4A3
100
AcDbEntity
  8
detail
 62
    16
  6
CONTINUOUS
370
     5
100
AcDbCircle
 10
18.32302098
 20
-55.68871295
 30
0.0
 40
0.00175248
100
AcDbArc
 50
359.56563102
 51
170.570069
  0
ARC
  5
4A4
100
AcDbEntity
  8
detail
 62
    16
  6
CONTINUOUS
370
     5
100
AcDbCircle
 10
18.32302098
 20
-55.68871295
 30
0.0
 40
0.00148287
100
AcDbArc
 50
0.947218
 51
170.570069
  0
ARC
  5
4A5
100
AcDbEntity
  8
detail
 62
    16
  6
CONTINUOUS
370
     5
100
AcDbCircle
 10
18.32302098
 20
-55.68871295
 30
0.0
 40
0.00121326
100
AcDbArc
 50
350.47046202
 51
174.826035
  0
ARC
  5
4A6
100
AcDbEntity
  8
detail
 62
    16
  6
CONTINUOUS
370
     5
100
AcDbCircle
 10
18.32445618
 20
-55.68948694
 30
0.0
 40
0.00033028
100
AcDbArc
 50
170.47045
 51
0.77360799
  0
ARC
  5
4A7
100
AcDbEntity
  8
detail
 62
    16
  6
CONTINUOUS
370
     5
100
AcDbCircle
 10
18.32445618
 20
-55.68948694
 30
0.0
 40
6.0662999998294E-05
100
AcDbArc
 50
171.76089193
 51
0.94721802
  0
ARC
  5
4A8
100
AcDbEntity
  8
detail
 62
    16
  6
CONTINUOUS
370
     5
100
AcDbCircle
 10
18.32181287
 20
-55.69233844
 30
0.0
 40
0.00060663
100
AcDbArc
 50
174.82603502
 51
245.074472
  0
ARC
  5
4A9
100
AcDbEntity
  8
detail
 62
    16
  6
CONTINUOUS
370
     5
100
AcDbCircle
 10
18.32181287
 20
-55.69233844
 30
0.0
 40
0.00033701
100
AcDbArc
 50
174.82603497
 51
245.07447203
  0
ARC
  5
4AA
100
AcDbEntity
  8
detail
 62
    16
  6
CONTINUOUS
370
     5
100
AcDbCircle
 10
18.32020952
 20
-55.69288755
 30
0.0
 40
0.00033702
100
AcDbArc
 50
294.31804906
 51
350.57007998
  0
ARC
  5
4AB
100
AcDbEntity
  8
detail
 62
    16
  6
CONTINUOUS
370
     5
100
AcDbCircle
 10
18.31977904
 20
-55.6941176
 30
0.0
 40
0.00033701
100
AcDbArc
 50
114.31803797
 51
159.28229306
  0
ARC
  5
4AC
100
AcDbEntity
  8
detail
 62
    16
  6
CONTINUOUS
370
     5
100
AcDbCircle
 10
18.32020952
 20
-55.69288755
 30
0.0
 40
0.00060663
100
AcDbArc
 50
294.31804898
 51
350.57008003
  0
ARC
  5
4AD
100
AcDbEntity
  8
detail
 62
    16
  6
CONTINUOUS
370
     5
100
AcDbCircle
 10
18.31977904
 20
-55.6941176
 30
0.0
 40
0.00060663
100
AcDbArc
 50
114.31803799
 51
159.28229299
  0
ARC
  5
4AE
100
AcDbEntity
  8
detail
 62
    16
  6
CONTINUOUS
370
     5
100
AcDbCircle
 10
18.31741928
 20
-55.72948511
 30
0.0
 40
0.00040442
100
AcDbArc
 50
49.162476
 51
245.17552501
  0
ARC
  5
4AF
100
AcDbEntity
  8
detail
 62
    16
  6
CONTINUOUS
370
     5
100
AcDbCircle
 10
18.31744492
 20
-55.72947985
 30
0.0
 40
0.00013481
100
AcDbArc
 50
65.17551005
 51
245.17552499
  0
ARC
  5
4B0
100
AcDbEntity
  8
detail
 62
    16
  6
CONTINUOUS
370
     5
100
AcDbCircle
 10
18.31877907
 20
-55.72847764
 30
0.0
 40
0.00145228
100
AcDbArc
 50
242.80248702
 51
357.18452102
  0
ARC
  5
4B1
100
AcDbEntity
  8
detail
 62
    16
  6
CONTINUOUS
370
     5
100
AcDbCircle
 10
18.31877907
 20
-55.72847764
 30
0.0
 40
0.00173797
100
AcDbArc
 50
240.53373602
 51
357.18452102
  0
ARC
  5
4B2
100
AcDbEntity
  8
detail
 62
    16
  6
CONTINUOUS
370
     5
100
AcDbCircle
 10
18.31877907
 20
-55.72847764
 30
0.0
 40
0.0020236
100
AcDbArc
 50
238.89639102
 51
357.18452102
  0
ARC
  5
4B3
100
AcDbEntity
  8
detail
 62
    16
  6
CONTINUOUS
370
     5
100
AcDbCircle
 10
18.38441868
 20
-55.75039991
 30
0.0
 40
0.07110541
100
AcDbArc
 50
185.86280002
 51
195.70969702
  0
ARC
  5
4B4
100
AcDbEntity
  8
detail
 62
    16
  6
CONTINUOUS
370
     5
100
AcDbCircle
 10
18.38441868
 20
-55.75039991
 30
0.0
 40
0.07137502
100
AcDbArc
 50
176.187196
 51
185.06030502
  0
ARC
  5
4B5
100
AcDbEntity
  8
detail
 62
    16
  6
CONTINUOUS
370
     5
100
AcDbCircle
 10
18.38441868
 20
-55.75039991
 30
0.0
 40
0.07137502
100
AcDbArc
 50
185.81781302
 51
195.70969702
  0
ARC
  5
4B6
100
AcDbEntity
  8
detail
 62
    16
  6
CONTINUOUS
370
     5
100
AcDbCircle
 10
18.31838981
 20
-55.73332261
 30
0.0
 40
0.00060663
100
AcDbArc
 50
329.61035301
 51
66.28708501
  0
ARC
  5
4B7
100
AcDbEntity
  8
detail
 62
    16
  6
CONTINUOUS
370
     5
100
AcDbCircle
 10
18.31841866
 20
-55.73333589
 30
0.0
 40
0.00033702
100
AcDbArc
 50
1.20309702
 51
66.78799298
  0
ARC
  5
4B8
100
AcDbEntity
  8
detail
 62
    16
  6
CONTINUOUS
370
     5
100
AcDbCircle
 10
18.38441868
 20
-55.75039991
 30
0.0
 40
0.07137502
100
AcDbArc
 50
166.632902
 51
175.429689
  0
ARC
  5
4B9
100
AcDbEntity
  8
detail
 62
    16
  6
CONTINUOUS
370
     5
100
AcDbCircle
 10
18.38441868
 20
-55.75039991
 30
0.0
 40
0.07110541
100
AcDbArc
 50
166.632902
 51
175.384715
  0
ARC
  5
4BA
100
AcDbEntity
  8
detail
 62
    16
  6
CONTINUOUS
370
     5
100
AcDbCircle
 10
18.38441868
 20
-55.75039991
 30
0.0
 40
0.07110541
100
AcDbArc
 50
176.232189
 51
185.01532502
  0
ARC
  5
4BB
100
AcDbEntity
  8
detail
 62
    16
  6
CONTINUOUS
370
     5
100
AcDbCircle
 10
18.34777021
 20
-55.74687446
 30
0.0
 40
0.0320208
100
AcDbArc
 50
154.974186
 51
211.95055102
  0
ARC
  5
4BC
100
AcDbEntity
  8
detail
 62
    16
  6
CONTINUOUS
370
     5
100
AcDbCircle
 10
18.34777021
 20
-55.74687446
 30
0.0
 40
0.03175157
100
AcDbArc
 50
155.345613
 51
211.97619202
  0
ARC
  5
4BD
100
AcDbEntity
  8
detail
 62
    16
  6
CONTINUOUS
370
     5
100
AcDbCircle
 10
18.31603423
 20
-55.76963439
 30
0.0
 40
0.00033702
100
AcDbArc
 50
195.70969701
 51
358.98758501
  0
ARC
  5
4BE
100
AcDbEntity
  8
detail
 62
    16
  6
CONTINUOUS
370
     5
100
AcDbCircle
 10
18.31841772
 20
-55.76446058
 30
0.0
 40
0.0022243
100
AcDbArc
 50
357.45217302
 51
178.98758
  0
ARC
  5
4BF
100
AcDbEntity
  8
detail
 62
    16
  6
CONTINUOUS
370
     5
100
AcDbCircle
 10
18.31603423
 20
-55.76963439
 30
0.0
 40
6.7403000017511E-05
100
AcDbArc
 50
195.70969709
 51
358.98758488
  0
ARC
  5
4C0
100
AcDbEntity
  8
detail
 62
    16
  6
CONTINUOUS
370
     5
100
AcDbCircle
 10
18.31841772
 20
-55.76446058
 30
0.0
 40
0.00195469
100
AcDbArc
 50
357.45217302
 51
178.98758
  0
ARC
  5
4C1
100
AcDbEntity
  8
detail
 62
    16
  6
CONTINUOUS
370
     5
100
AcDbCircle
 10
18.31942054
 20
-55.76447155
 30
0.0
 40
0.00134806
100
AcDbArc
 50
355.91910903
 51
28.92946499
  0
ARC
  5
4C2
100
AcDbEntity
  8
detail
 62
    16
  6
CONTINUOUS
370
     5
100
AcDbCircle
 10
18.31942054
 20
-55.76447155
 30
0.0
 40
0.00161767
100
AcDbArc
 50
355.91910901
 51
28.929465
  0
ARC
  5
4C3
100
AcDbEntity
  8
detail
 62
    16
  6
CONTINUOUS
370
     5
100
AcDbCircle
 10
18.31809131
 20
-55.72826401
 30
0.0
 40
0.00175248
100
AcDbArc
 50
6.91623
 51
177.920678
  0
ARC
  5
4C4
100
AcDbEntity
  8
detail
 62
    16
  6
CONTINUOUS
370
     5
100
AcDbCircle
 10
18.31809131
 20
-55.72826401
 30
0.0
 40
0.00148287
100
AcDbArc
 50
8.297827
 51
177.92067799
  0
ARC
  5
4C5
100
AcDbEntity
  8
detail
 62
    16
  6
CONTINUOUS
370
     5
100
AcDbCircle
 10
18.31809131
 20
-55.72826401
 30
0.0
 40
0.00121325
100
AcDbArc
 50
357.82107102
 51
182.17665401
  0
ARC
  5
4C6
100
AcDbEntity
  8
detail
 62
    16
  6
CONTINUOUS
370
     5
100
AcDbCircle
 10
18.31961373
 20
-55.72884802
 30
0.0
 40
0.00033028
100
AcDbArc
 50
177.821059
 51
8.12421701
  0
ARC
  5
4C7
100
AcDbEntity
  8
detail
 62
    16
  6
CONTINUOUS
370
     5
100
AcDbCircle
 10
18.31961373
 20
-55.72884802
 30
0.0
 40
6.0663000026361E-05
100
AcDbArc
 50
179.11150102
 51
8.29782691
  0
ARC
  5
4C8
100
AcDbEntity
  8
detail
 62
    16
  6
CONTINUOUS
370
     5
100
AcDbCircle
 10
18.31735697
 20
-55.73201427
 30
0.0
 40
0.00060663
100
AcDbArc
 50
182.17665402
 51
252.42508099
  0
ARC
  5
4C9
100
AcDbEntity
  8
detail
 62
    16
  6
CONTINUOUS
370
     5
100
AcDbCircle
 10
18.31735697
 20
-55.73201427
 30
0.0
 40
0.00033702
100
AcDbArc
 50
182.17665404
 51
252.42508098
  0
ARC
  5
4CA
100
AcDbEntity
  8
detail
 62
    16
  6
CONTINUOUS
370
     5
100
AcDbCircle
 10
18.31583706
 20
-55.732764
 30
0.0
 40
0.00033701
100
AcDbArc
 50
301.66865797
 51
357.92068906
  0
ARC
  5
4CB
100
AcDbEntity
  8
detail
 62
    16
  6
CONTINUOUS
370
     5
100
AcDbCircle
 10
18.31556748
 20
-55.73403902
 30
0.0
 40
0.00033702
100
AcDbArc
 50
121.66864703
 51
166.63290197
  0
ARC
  5
4CC
100
AcDbEntity
  8
detail
 62
    16
  6
CONTINUOUS
370
     5
100
AcDbCircle
 10
18.31583706
 20
-55.732764
 30
0.0
 40
0.00060663
100
AcDbArc
 50
301.66865803
 51
357.92068901
  0
ARC
  5
4CD
100
AcDbEntity
  8
detail
 62
    16
  6
CONTINUOUS
370
     5
100
AcDbCircle
 10
18.31556748
 20
-55.73403902
 30
0.0
 40
0.00060663
100
AcDbArc
 50
121.66864699
 51
166.63290201
  0
ARC
  5
4CE
100
AcDbEntity
  8
detail
 62
    16
  6
CONTINUOUS
370
     5
100
AcDbCircle
 10
18.31775206
 20
-55.76941778
 30
0.0
 40
0.00040442
100
AcDbArc
 50
56.513085
 51
252.52613503
  0
ARC
  5
4CF
100
AcDbEntity
  8
detail
 62
    16
  6
CONTINUOUS
370
     5
100
AcDbCircle
 10
18.31777682
 20
-55.76940928
 30
0.0
 40
0.00013481
100
AcDbArc
 50
72.52611998
 51
252.52613505
  0
ARC
  5
4D0
100
AcDbEntity
  8
detail
 62
    16
  6
CONTINUOUS
370
     5
100
AcDbCircle
 10
18.31897178
 20
-55.76824461
 30
0.0
 40
0.00145228
100
AcDbArc
 50
250.15309602
 51
4.535121
  0
ARC
  5
4D1
100
AcDbEntity
  8
detail
 62
    16
  6
CONTINUOUS
370
     5
100
AcDbCircle
 10
18.31897178
 20
-55.76824461
 30
0.0
 40
0.00173797
100
AcDbArc
 50
247.88434502
 51
4.535121
  0
ARC
  5
4D2
100
AcDbEntity
  8
detail
 62
    16
  6
CONTINUOUS
370
     5
100
AcDbCircle
 10
18.31897178
 20
-55.76824461
 30
0.0
 40
0.0020236
100
AcDbArc
 50
246.24700102
 51
4.535121
  0
ARC
  5
4D3
100
AcDbEntity
  8
detail
 62
    16
  6
CONTINUOUS
370
     5
100
AcDbCircle
 10
18.44388562
 20
-55.69471337
 30
0.0
 40
0.00269444
100
AcDbArc
 50
270.00001002
 51
90.0
  0
ARC
  5
4D4
100
AcDbEntity
  8
detail
 62
    16
  6
CONTINUOUS
370
     5
100
AcDbCircle
 10
18.34737579
 20
-55.69471337
 30
0.0
 40
0.00269444
100
AcDbArc
 50
90.0
 51
270.00001002
  0
ARC
  5
4D5
100
AcDbEntity
  8
detail
 62
    16
  6
CONTINUOUS
370
     5
100
AcDbCircle
 10
18.44388562
 20
-55.76010404
 30
0.0
 40
0.00269444
100
AcDbArc
 50
270.00001002
 51
90.0
  0
ARC
  5
4D6
100
AcDbEntity
  8
detail
 62
    16
  6
CONTINUOUS
370
     5
100
AcDbCircle
 10
18.34737579
 20
-55.76010404
 30
0.0
 40
0.00269444
100
AcDbArc
 50
90.0
 51
270.00001002
  0
ARC
  5
4D7
100
AcDbEntity
  8
detail
 62
    16
  6
CONTINUOUS
370
     5
100
AcDbCircle
 10
18.31334611
 20
-55.65069053
 30
0.0
 40
0.00345302
100
AcDbArc
 50
52.122858
 51
167.184791
  0
ARC
  5
4D8
100
AcDbEntity
  8
detail
 62
    16
  6
CONTINUOUS
370
     5
100
AcDbCircle
 10
18.31442135
 20
-55.65321579
 30
0.0
 40
0.00164169
100
AcDbArc
 50
47.899533
 51
174.105762
  0
ARC
  5
4D9
100
AcDbEntity
  8
detail
 62
    16
  6
CONTINUOUS
370
     5
100
AcDbCircle
 10
18.44388562
 20
-55.77791053
 30
0.0
 40
0.00269444
100
AcDbArc
 50
270.00001002
 51
90.0
  0
ARC
  5
4DA
100
AcDbEntity
  8
detail
 62
    16
  6
CONTINUOUS
370
     5
100
AcDbCircle
 10
18.34737579
 20
-55.77791053
 30
0.0
 40
0.00269444
100
AcDbArc
 50
90.0
 51
270.00001002
  0
ARC
  5
4DB
100
AcDbEntity
  8
detail
 62
    16
  6
CONTINUOUS
370
     5
100
AcDbCircle
 10
18.31278835
 20
-55.68460596
 30
0.0
 40
0.00312771
100
AcDbArc
 50
270.00001002
 51
1.0662940736498E-09
  0
ARC
  5
4DC
100
AcDbEntity
  8
detail
 62
    16
  6
CONTINUOUS
370
     5
100
AcDbCircle
 10
18.45103657
 20
-55.71359828
 30
0.0
 40
0.00512007
100
AcDbArc
 50
270.00001002
 51
360.00001002
  0
ARC
  5
4DD
100
AcDbEntity
  8
detail
 62
    16
  6
CONTINUOUS
370
     5
100
AcDbCircle
 10
18.45103657
 20
-55.67255869
 30
0.0
 40
0.00512007
100
AcDbArc
 50
360.00001002
 51
90.0
  0
ARC
  5
4DE
100
AcDbEntity
  8
detail
 62
    16
  6
CONTINUOUS
370
     5
100
AcDbCircle
 10
18.45103657
 20
-55.78381315
 30
0.0
 40
0.00512007
100
AcDbArc
 50
270.00001002
 51
1.0584739199390E-09
  0
ARC
  5
4DF
100
AcDbEntity
  8
detail
 62
    16
  6
CONTINUOUS
370
     5
100
AcDbCircle
 10
18.34737579
 20
-55.73276019
 30
0.0
 40
0.01404184
100
AcDbArc
 50
90.0
 51
270.00001002
  0
ARC
  5
4E0
100
AcDbEntity
  8
detail
 62
    16
  6
CONTINUOUS
370
     5
100
AcDbCircle
 10
18.45103657
 20
-55.7519221
 30
0.0
 40
0.00512007
100
AcDbArc
 50
360.00001002
 51
90.0
  0
ARC
  5
4E1
100
AcDbEntity
  8
detail
 62
    16
  6
CONTINUOUS
370
     5
100
AcDbCircle
 10
18.38576919
 20
-55.78701685
 30
0.0
 40
0.07110541
100
AcDbArc
 50
188.77363702
 51
198.62053502
  0
ARC
  5
4E2
100
AcDbEntity
  8
detail
 62
    16
  6
CONTINUOUS
370
     5
100
AcDbCircle
 10
18.38576919
 20
-55.78701685
 30
0.0
 40
0.07137502
100
AcDbArc
 50
179.098034
 51
187.97114302
  0
ARC
  5
4E3
100
AcDbEntity
  8
detail
 62
    16
  6
CONTINUOUS
370
     5
100
AcDbCircle
 10
18.38576919
 20
-55.78701685
 30
0.0
 40
0.07137502
100
AcDbArc
 50
188.72865102
 51
198.62053502
  0
ARC
  5
4E4
100
AcDbEntity
  8
detail
 62
    16
  6
CONTINUOUS
370
     5
100
AcDbCircle
 10
18.3189583
 20
-55.77331465
 30
0.0
 40
0.00060663
100
AcDbArc
 50
332.52119103
 51
69.19792299
  0
ARC
  5
4E5
100
AcDbEntity
  8
detail
 62
    16
  6
CONTINUOUS
370
     5
100
AcDbCircle
 10
18.31898778
 20
-55.77332644
 30
0.0
 40
0.00033702
100
AcDbArc
 50
4.11393501
 51
69.69883095
  0
ARC
  5
4E6
100
AcDbEntity
  8
detail
 62
    16
  6
CONTINUOUS
370
     5
100
AcDbCircle
 10
18.38576919
 20
-55.78701685
 30
0.0
 40
0.07137502
100
AcDbArc
 50
169.54374
 51
178.340526
  0
ARC
  5
4E7
100
AcDbEntity
  8
detail
 62
    16
  6
CONTINUOUS
370
     5
100
AcDbCircle
 10
18.38576919
 20
-55.78701685
 30
0.0
 40
0.07110541
100
AcDbArc
 50
169.54374
 51
178.295553
  0
ARC
  5
4E8
100
AcDbEntity
  8
detail
 62
    16
  6
CONTINUOUS
370
     5
100
AcDbCircle
 10
18.38576919
 20
-55.78701685
 30
0.0
 40
0.07110541
100
AcDbArc
 50
179.143027
 51
187.92616302
  0
ARC
  5
4E9
100
AcDbEntity
  8
detail
 62
    16
  6
CONTINUOUS
370
     5
100
AcDbCircle
 10
18.34898897
 20
-55.78535702
 30
0.0
 40
0.0320208
100
AcDbArc
 50
157.885024
 51
214.86138902
  0
ARC
  5
4EA
100
AcDbEntity
  8
detail
 62
    16
  6
CONTINUOUS
370
     5
100
AcDbCircle
 10
18.34898897
 20
-55.78535702
 30
0.0
 40
0.03175157
100
AcDbArc
 50
158.25645
 51
214.88703002
  0
ARC
  5
4EB
100
AcDbEntity
  8
detail
 62
    16
  6
CONTINUOUS
370
     5
100
AcDbCircle
 10
18.31844973
 20
-55.8096992
 30
0.0
 40
0.00033701
100
AcDbArc
 50
198.62053503
 51
1.898413
  0
ARC
  5
4EC
100
AcDbEntity
  8
detail
 62
    16
  6
CONTINUOUS
370
     5
100
AcDbCircle
 10
18.32056741
 20
-55.80441102
 30
0.0
 40
0.0022243
100
AcDbArc
 50
0.363001
 51
181.89842802
  0
ARC
  5
4ED
100
AcDbEntity
  8
detail
 62
    16
  6
CONTINUOUS
370
     5
100
AcDbCircle
 10
18.31844973
 20
-55.8096992
 30
0.0
 40
6.7402999986384E-05
100
AcDbArc
 50
198.62053496
 51
1.89841309
  0
ARC
  5
4EE
100
AcDbEntity
  8
detail
 62
    16
  6
CONTINUOUS
370
     5
100
AcDbCircle
 10
18.32056741
 20
-55.80441102
 30
0.0
 40
0.00195469
100
AcDbArc
 50
0.363001
 51
181.89842802
  0
ARC
  5
4EF
100
AcDbEntity
  8
detail
 62
    16
  6
CONTINUOUS
370
     5
100
AcDbCircle
 10
18.3215695
 20
-55.80437106
 30
0.0
 40
0.00134806
100
AcDbArc
 50
358.829947
 51
31.84030302
  0
ARC
  5
4F0
100
AcDbEntity
  8
detail
 62
    16
  6
CONTINUOUS
370
     5
100
AcDbCircle
 10
18.3215695
 20
-55.80437106
 30
0.0
 40
0.00161767
100
AcDbArc
 50
358.82994702
 51
31.840303
  0
ARC
  5
4F1
100
AcDbEntity
  8
detail
 62
    16
  6
CONTINUOUS
370
     5
100
AcDbCircle
 10
18.31840329
 20
-55.76827773
 30
0.0
 40
0.00175248
100
AcDbArc
 50
9.827068
 51
180.83152602
  0
ARC
  5
4F2
100
AcDbEntity
  8
detail
 62
    16
  6
CONTINUOUS
370
     5
100
AcDbCircle
 10
18.31840329
 20
-55.76827773
 30
0.0
 40
0.00148287
100
AcDbArc
 50
11.208665
 51
180.83152602
  0
ARC
  5
4F3
100
AcDbEntity
  8
detail
 62
    16
  6
CONTINUOUS
370
     5
100
AcDbCircle
 10
18.31840329
 20
-55.76827773
 30
0.0
 40
0.00121325
100
AcDbArc
 50
0.731899
 51
185.08749202
  0
ARC
  5
4F4
100
AcDbEntity
  8
detail
 62
    16
  6
CONTINUOUS
370
     5
100
AcDbCircle
 10
18.31995341
 20
-55.76878368
 30
0.0
 40
0.00033028
100
AcDbArc
 50
180.73190702
 51
11.035055
  0
ARC
  5
4F5
100
AcDbEntity
  8
detail
 62
    16
  6
CONTINUOUS
370
     5
100
AcDbCircle
 10
18.31995341
 20
-55.76878368
 30
0.0
 40
6.0662999960417E-05
100
AcDbArc
 50
182.02234903
 51
11.20866511
  0
ARC
  5
4F6
100
AcDbEntity
  8
detail
 62
    16
  6
CONTINUOUS
370
     5
100
AcDbCircle
 10
18.31786035
 20
-55.77206045
 30
0.0
 40
0.00060663
100
AcDbArc
 50
185.08749202
 51
255.33591901
  0
ARC
  5
4F7
100
AcDbEntity
  8
detail
 62
    16
  6
CONTINUOUS
370
     5
100
AcDbCircle
 10
18.31786035
 20
-55.77206045
 30
0.0
 40
0.00033702
100
AcDbArc
 50
185.08749208
 51
255.33591894
  0
ARC
  5
4F8
100
AcDbEntity
  8
detail
 62
    16
  6
CONTINUOUS
370
     5
100
AcDbCircle
 10
18.31638047
 20
-55.77288639
 30
0.0
 40
0.00033701
100
AcDbArc
 50
304.57949601
 51
0.83151703
  0
ARC
  5
4F9
100
AcDbEntity
  8
detail
 62
    16
  6
CONTINUOUS
370
     5
100
AcDbCircle
 10
18.31617599
 20
-55.77417345
 30
0.0
 40
0.00033701
100
AcDbArc
 50
124.57948497
 51
169.54374001
  0
ARC
  5
4FA
100
AcDbEntity
  8
detail
 62
    16
  6
CONTINUOUS
370
     5
100
AcDbCircle
 10
18.31638047
 20
-55.77288639
 30
0.0
 40
0.00060663
100
AcDbArc
 50
304.57949604
 51
0.83151699
  0
ARC
  5
4FB
100
AcDbEntity
  8
detail
 62
    16
  6
CONTINUOUS
370
     5
100
AcDbCircle
 10
18.31617599
 20
-55.77417345
 30
0.0
 40
0.00060663
100
AcDbArc
 50
124.57948498
 51
169.54374003
  0
ARC
  5
4FC
100
AcDbEntity
  8
detail
 62
    16
  6
CONTINUOUS
370
     5
100
AcDbCircle
 10
18.32015435
 20
-55.80939564
 30
0.0
 40
0.00040442
100
AcDbArc
 50
59.42392299
 51
255.43697303
  0
ARC
  5
4FD
100
AcDbEntity
  8
detail
 62
    16
  6
CONTINUOUS
370
     5
100
AcDbCircle
 10
18.32017864
 20
-55.80938589
 30
0.0
 40
0.00013481
100
AcDbArc
 50
75.43695803
 51
255.43697303
  0
ARC
  5
4FE
100
AcDbEntity
  8
detail
 62
    16
  6
CONTINUOUS
370
     5
100
AcDbCircle
 10
18.32131292
 20
-55.80816204
 30
0.0
 40
0.00145228
100
AcDbArc
 50
253.06393401
 51
7.44595901
  0
ARC
  5
4FF
100
AcDbEntity
  8
detail
 62
    16
  6
CONTINUOUS
370
     5
100
AcDbCircle
 10
18.32131292
 20
-55.80816204
 30
0.0
 40
0.00173797
100
AcDbArc
 50
250.79518301
 51
7.445959
  0
ARC
  5
500
100
AcDbEntity
  8
detail
 62
    16
  6
CONTINUOUS
370
     5
100
AcDbCircle
 10
18.32131292
 20
-55.80816204
 30
0.0
 40
0.0020236
100
AcDbArc
 50
249.15783902
 51
7.445959
  0
ARC
  5
501
100
AcDbEntity
  8
detail
 62
    16
  6
CONTINUOUS
370
     5
100
AcDbCircle
 10
18.32345537
 20
-55.69050666
 30
0.0
 40
0.00083939
100
AcDbArc
 50
208.96883701
 51
313.96883703
  0
ARC
  5
502
100
AcDbEntity
  8
detail
 62
    16
  6
CONTINUOUS
370
     5
100
AcDbCircle
 10
18.32307758
 20
-55.68982423
 30
0.0
 40
0.00083939
100
AcDbArc
 50
133.968829
 51
208.96885202
  0
ARC
  5
503
100
AcDbEntity
  8
detail
 62
    16
  6
CONTINUOUS
370
     5
100
AcDbCircle
 10
18.32294935
 20
-55.68901491
 30
0.0
 40
0.00016788
100
AcDbArc
 50
333.96879802
 51
133.96885097
  0
ARC
  5
504
100
AcDbEntity
  8
detail
 62
    16
  6
CONTINUOUS
370
     5
100
AcDbCircle
 10
18.32306414
 20
-55.68979996
 30
0.0
 40
0.0002798
100
AcDbArc
 50
153.96882898
 51
208.96883104
  0
ARC
  5
505
100
AcDbEntity
  8
detail
 62
    16
  6
CONTINUOUS
370
     5
100
AcDbCircle
 10
18.32346744
 20
-55.68995076
 30
0.0
 40
0.00055959
100
AcDbArc
 50
208.96884602
 51
313.96884102
  0
ARC
  5
506
100
AcDbEntity
  8
detail
 62
    16
  6
CONTINUOUS
370
     5
100
AcDbCircle
 10
18.32345537
 20
-55.69050666
 30
0.0
 40
0.00083939
100
AcDbArc
 50
208.96883701
 51
313.96883703
  0
ARC
  5
507
100
AcDbEntity
  8
detail
 62
    16
  6
CONTINUOUS
370
     5
100
AcDbCircle
 10
18.32307758
 20
-55.68982423
 30
0.0
 40
0.00083939
100
AcDbArc
 50
133.968829
 51
208.96885202
  0
ARC
  5
508
100
AcDbEntity
  8
detail
 62
    16
  6
CONTINUOUS
370
     5
100
AcDbCircle
 10
18.32294935
 20
-55.68901491
 30
0.0
 40
0.00016788
100
AcDbArc
 50
333.96879802
 51
133.96885097
  0
ARC
  5
509
100
AcDbEntity
  8
detail
 62
    16
  6
CONTINUOUS
370
     5
100
AcDbCircle
 10
18.32306414
 20
-55.68979996
 30
0.0
 40
0.0002798
100
AcDbArc
 50
153.96882898
 51
208.96883104
  0
ARC
  5
50A
100
AcDbEntity
  8
detail
 62
    16
  6
CONTINUOUS
370
     5
100
AcDbCircle
 10
18.32346744
 20
-55.68995076
 30
0.0
 40
0.00055959
100
AcDbArc
 50
208.96884602
 51
313.96884102
  0
ARC
  5
50B
100
AcDbEntity
  8
detail
 62
    16
  6
CONTINUOUS
370
     5
100
AcDbCircle
 10
18.32345537
 20
-55.69050666
 30
0.0
 40
0.00083939
100
AcDbArc
 50
208.96883701
 51
313.96883703
  0
ARC
  5
50C
100
AcDbEntity
  8
detail
 62
    16
  6
CONTINUOUS
370
     5
100
AcDbCircle
 10
18.32307758
 20
-55.68982423
 30
0.0
 40
0.00083939
100
AcDbArc
 50
133.968829
 51
208.96885202
  0
ARC
  5
50D
100
AcDbEntity
  8
detail
 62
    16
  6
CONTINUOUS
370
     5
100
AcDbCircle
 10
18.32294935
 20
-55.68901491
 30
0.0
 40
0.00016788
100
AcDbArc
 50
333.96879802
 51
133.96885097
  0
ARC
  5
50E
100
AcDbEntity
  8
detail
 62
    16
  6
CONTINUOUS
370
     5
100
AcDbCircle
 10
18.32306414
 20
-55.68979996
 30
0.0
 40
0.0002798
100
AcDbArc
 50
153.96882898
 51
208.96883104
  0
ARC
  5
50F
100
AcDbEntity
  8
detail
 62
    16
  6
CONTINUOUS
370
     5
100
AcDbCircle
 10
18.32346744
 20
-55.68995076
 30
0.0
 40
0.00055959
100
AcDbArc
 50
208.96884602
 51
313.96884102
  0
ARC
  5
510
100
AcDbEntity
  8
detail
 62
    16
  6
CONTINUOUS
370
     5
100
AcDbCircle
 10
18.32345537
 20
-55.69050666
 30
0.0
 40
0.00083939
100
AcDbArc
 50
208.96883701
 51
313.96883703
  0
ARC
  5
511
100
AcDbEntity
  8
detail
 62
    16
  6
CONTINUOUS
370
     5
100
AcDbCircle
 10
18.32307758
 20
-55.68982423
 30
0.0
 40
0.00083939
100
AcDbArc
 50
133.968829
 51
208.96885202
  0
ARC
  5
512
100
AcDbEntity
  8
detail
 62
    16
  6
CONTINUOUS
370
     5
100
AcDbCircle
 10
18.32294935
 20
-55.68901491
 30
0.0
 40
0.00016788
100
AcDbArc
 50
333.96879802
 51
133.96885097
  0
ARC
  5
513
100
AcDbEntity
  8
detail
 62
    16
  6
CONTINUOUS
370
     5
100
AcDbCircle
 10
18.32306414
 20
-55.68979996
 30
0.0
 40
0.0002798
100
AcDbArc
 50
153.96882898
 51
208.96883104
  0
ARC
  5
514
100
AcDbEntity
  8
detail
 62
    16
  6
CONTINUOUS
370
     5
100
AcDbCircle
 10
18.32346744
 20
-55.68995076
 30
0.0
 40
0.00055959
100
AcDbArc
 50
208.96884602
 51
313.96884102
  0
ARC
  5
515
100
AcDbEntity
  8
detail
 62
    16
  6
CONTINUOUS
370
     5
100
AcDbCircle
 10
18.32345537
 20
-55.69050666
 30
0.0
 40
0.00083939
100
AcDbArc
 50
208.96883701
 51
313.96883703
  0
ARC
  5
516
100
AcDbEntity
  8
detail
 62
    16
  6
CONTINUOUS
370
     5
100
AcDbCircle
 10
18.32307758
 20
-55.68982423
 30
0.0
 40
0.00083939
100
AcDbArc
 50
133.968829
 51
208.96885202
  0
ARC
  5
517
100
AcDbEntity
  8
detail
 62
    16
  6
CONTINUOUS
370
     5
100
AcDbCircle
 10
18.32294935
 20
-55.68901491
 30
0.0
 40
0.00016788
100
AcDbArc
 50
333.96879802
 51
133.96885097
  0
ARC
  5
518
100
AcDbEntity
  8
detail
 62
    16
  6
CONTINUOUS
370
     5
100
AcDbCircle
 10
18.32306414
 20
-55.68979996
 30
0.0
 40
0.0002798
100
AcDbArc
 50
153.96882898
 51
208.96883104
  0
ARC
  5
519
100
AcDbEntity
  8
detail
 62
    16
  6
CONTINUOUS
370
     5
100
AcDbCircle
 10
18.32346744
 20
-55.68995076
 30
0.0
 40
0.00055959
100
AcDbArc
 50
208.96884602
 51
313.96884102
  0
ARC
  5
51A
100
AcDbEntity
  8
detail
 62
    16
  6
CONTINUOUS
370
     5
100
AcDbCircle
 10
18.32345537
 20
-55.69050666
 30
0.0
 40
0.00083939
100
AcDbArc
 50
208.96883701
 51
313.96883703
  0
ARC
  5
51B
100
AcDbEntity
  8
detail
 62
    16
  6
CONTINUOUS
370
     5
100
AcDbCircle
 10
18.32307758
 20
-55.68982423
 30
0.0
 40
0.00083939
100
AcDbArc
 50
133.968829
 51
208.96885202
  0
ARC
  5
51C
100
AcDbEntity
  8
detail
 62
    16
  6
CONTINUOUS
370
     5
100
AcDbCircle
 10
18.32294935
 20
-55.68901491
 30
0.0
 40
0.00016788
100
AcDbArc
 50
333.96879802
 51
133.96885097
  0
ARC
  5
51D
100
AcDbEntity
  8
detail
 62
    16
  6
CONTINUOUS
370
     5
100
AcDbCircle
 10
18.32306414
 20
-55.68979996
 30
0.0
 40
0.0002798
100
AcDbArc
 50
153.96882898
 51
208.96883104
  0
ARC
  5
51E
100
AcDbEntity
  8
detail
 62
    16
  6
CONTINUOUS
370
     5
100
AcDbCircle
 10
18.32346744
 20
-55.68995076
 30
0.0
 40
0.00055959
100
AcDbArc
 50
208.96884602
 51
313.96884102
  0
ARC
  5
51F
100
AcDbEntity
  8
detail
 62
    16
  6
CONTINUOUS
370
     5
100
AcDbCircle
 10
18.32345537
 20
-55.69050666
 30
0.0
 40
0.00083939
100
AcDbArc
 50
208.96883701
 51
313.96883703
  0
ARC
  5
520
100
AcDbEntity
  8
detail
 62
    16
  6
CONTINUOUS
370
     5
100
AcDbCircle
 10
18.32307758
 20
-55.68982423
 30
0.0
 40
0.00083939
100
AcDbArc
 50
133.968829
 51
208.96885202
  0
ARC
  5
521
100
AcDbEntity
  8
detail
 62
    16
  6
CONTINUOUS
370
     5
100
AcDbCircle
 10
18.32294935
 20
-55.68901491
 30
0.0
 40
0.00016788
100
AcDbArc
 50
333.96879802
 51
133.96885097
  0
ARC
  5
522
100
AcDbEntity
  8
detail
 62
    16
  6
CONTINUOUS
370
     5
100
AcDbCircle
 10
18.32306414
 20
-55.68979996
 30
0.0
 40
0.0002798
100
AcDbArc
 50
153.96882898
 51
208.96883104
  0
ARC
  5
523
100
AcDbEntity
  8
detail
 62
    16
  6
CONTINUOUS
370
     5
100
AcDbCircle
 10
18.32346744
 20
-55.68995076
 30
0.0
 40
0.00055959
100
AcDbArc
 50
208.96884602
 51
313.96884102
  0
ARC
  5
524
100
AcDbEntity
  8
detail
 62
    16
  6
CONTINUOUS
370
     5
100
AcDbCircle
 10
18.32345537
 20
-55.69050666
 30
0.0
 40
0.00083939
100
AcDbArc
 50
208.96883701
 51
313.96883703
  0
ARC
  5
525
100
AcDbEntity
  8
detail
 62
    16
  6
CONTINUOUS
370
     5
100
AcDbCircle
 10
18.32307758
 20
-55.68982423
 30
0.0
 40
0.00083939
100
AcDbArc
 50
133.968829
 51
208.96885202
  0
ARC
  5
526
100
AcDbEntity
  8
detail
 62
    16
  6
CONTINUOUS
370
     5
100
AcDbCircle
 10
18.32294935
 20
-55.68901491
 30
0.0
 40
0.00016788
100
AcDbArc
 50
333.96879802
 51
133.96885097
  0
ARC
  5
527
100
AcDbEntity
  8
detail
 62
    16
  6
CONTINUOUS
370
     5
100
AcDbCircle
 10
18.32306414
 20
-55.68979996
 30
0.0
 40
0.0002798
100
AcDbArc
 50
153.96882898
 51
208.96883104
  0
ARC
  5
528
100
AcDbEntity
  8
detail
 62
    16
  6
CONTINUOUS
370
     5
100
AcDbCircle
 10
18.32346744
 20
-55.68995076
 30
0.0
 40
0.00055959
100
AcDbArc
 50
208.96884602
 51
313.96884102
  0
ARC
  5
529
100
AcDbEntity
  8
detail
 62
    16
  6
CONTINUOUS
370
     5
100
AcDbCircle
 10
18.32345537
 20
-55.69050666
 30
0.0
 40
0.00083939
100
AcDbArc
 50
208.96883701
 51
313.96883703
  0
ARC
  5
52A
100
AcDbEntity
  8
detail
 62
    16
  6
CONTINUOUS
370
     5
100
AcDbCircle
 10
18.32307758
 20
-55.68982423
 30
0.0
 40
0.00083939
100
AcDbArc
 50
133.968829
 51
208.96885202
  0
ARC
  5
52B
100
AcDbEntity
  8
detail
 62
    16
  6
CONTINUOUS
370
     5
100
AcDbCircle
 10
18.32294935
 20
-55.68901491
 30
0.0
 40
0.00016788
100
AcDbArc
 50
333.96879802
 51
133.96885097
  0
ARC
  5
52C
100
AcDbEntity
  8
detail
 62
    16
  6
CONTINUOUS
370
     5
100
AcDbCircle
 10
18.32306414
 20
-55.68979996
 30
0.0
 40
0.0002798
100
AcDbArc
 50
153.96882898
 51
208.96883104
  0
ARC
  5
52D
100
AcDbEntity
  8
detail
 62
    16
  6
CONTINUOUS
370
     5
100
AcDbCircle
 10
18.32346744
 20
-55.68995076
 30
0.0
 40
0.00055959
100
AcDbArc
 50
208.96884602
 51
313.96884102
  0
ARC
  5
52E
100
AcDbEntity
  8
detail
 62
    16
  6
CONTINUOUS
370
     5
100
AcDbCircle
 10
18.32345537
 20
-55.69050666
 30
0.0
 40
0.00083939
100
AcDbArc
 50
208.96883701
 51
313.96883703
  0
ARC
  5
52F
100
AcDbEntity
  8
detail
 62
    16
  6
CONTINUOUS
370
     5
100
AcDbCircle
 10
18.32307758
 20
-55.68982423
 30
0.0
 40
0.00083939
100
AcDbArc
 50
133.968829
 51
208.96885202
  0
ARC
  5
530
100
AcDbEntity
  8
detail
 62
    16
  6
CONTINUOUS
370
     5
100
AcDbCircle
 10
18.32294935
 20
-55.68901491
 30
0.0
 40
0.00016788
100
AcDbArc
 50
333.96879802
 51
133.96885097
  0
ARC
  5
531
100
AcDbEntity
  8
detail
 62
    16
  6
CONTINUOUS
370
     5
100
AcDbCircle
 10
18.32306414
 20
-55.68979996
 30
0.0
 40
0.0002798
100
AcDbArc
 50
153.96882898
 51
208.96883104
  0
ARC
  5
532
100
AcDbEntity
  8
detail
 62
    16
  6
CONTINUOUS
370
     5
100
AcDbCircle
 10
18.32346744
 20
-55.68995076
 30
0.0
 40
0.00055959
100
AcDbArc
 50
208.96884602
 51
313.96884102
  0
ARC
  5
533
100
AcDbEntity
  8
detail
 62
    16
  6
CONTINUOUS
370
     5
100
AcDbCircle
 10
18.32345537
 20
-55.69050666
 30
0.0
 40
0.00083939
100
AcDbArc
 50
208.96883701
 51
313.96883703
  0
ARC
  5
534
100
AcDbEntity
  8
detail
 62
    16
  6
CONTINUOUS
370
     5
100
AcDbCircle
 10
18.32307758
 20
-55.68982423
 30
0.0
 40
0.00083939
100
AcDbArc
 50
133.968829
 51
208.96885202
  0
ARC
  5
535
100
AcDbEntity
  8
detail
 62
    16
  6
CONTINUOUS
370
     5
100
AcDbCircle
 10
18.32294935
 20
-55.68901491
 30
0.0
 40
0.00016788
100
AcDbArc
 50
333.96879802
 51
133.96885097
  0
ARC
  5
536
100
AcDbEntity
  8
detail
 62
    16
  6
CONTINUOUS
370
     5
100
AcDbCircle
 10
18.32306414
 20
-55.68979996
 30
0.0
 40
0.0002798
100
AcDbArc
 50
153.96882898
 51
208.96883104
  0
ARC
  5
537
100
AcDbEntity
  8
detail
 62
    16
  6
CONTINUOUS
370
     5
100
AcDbCircle
 10
18.32346744
 20
-55.68995076
 30
0.0
 40
0.00055959
100
AcDbArc
 50
208.96884602
 51
313.96884102
  0
ARC
  5
538
100
AcDbEntity
  8
detail
 62
    16
  6
CONTINUOUS
370
     5
100
AcDbCircle
 10
18.32345537
 20
-55.69050666
 30
0.0
 40
0.00083939
100
AcDbArc
 50
208.96883701
 51
313.96883703
  0
ARC
  5
539
100
AcDbEntity
  8
detail
 62
    16
  6
CONTINUOUS
370
     5
100
AcDbCircle
 10
18.32307758
 20
-55.68982423
 30
0.0
 40
0.00083939
100
AcDbArc
 50
133.968829
 51
208.96885202
  0
ARC
  5
53A
100
AcDbEntity
  8
detail
 62
    16
  6
CONTINUOUS
370
     5
100
AcDbCircle
 10
18.32294935
 20
-55.68901491
 30
0.0
 40
0.00016788
100
AcDbArc
 50
333.96879802
 51
133.96885097
  0
ARC
  5
53B
100
AcDbEntity
  8
detail
 62
    16
  6
CONTINUOUS
370
     5
100
AcDbCircle
 10
18.32306414
 20
-55.68979996
 30
0.0
 40
0.0002798
100
AcDbArc
 50
153.96882898
 51
208.96883104
  0
ARC
  5
53C
100
AcDbEntity
  8
detail
 62
    16
  6
CONTINUOUS
370
     5
100
AcDbCircle
 10
18.32346744
 20
-55.68995076
 30
0.0
 40
0.00055959
100
AcDbArc
 50
208.96884602
 51
313.96884102
  0
ARC
  5
53D
100
AcDbEntity
  8
detail
 62
    16
  6
CONTINUOUS
370
     5
100
AcDbCircle
 10
18.32345537
 20
-55.69050666
 30
0.0
 40
0.00083939
100
AcDbArc
 50
208.96883701
 51
313.96883703
  0
ARC
  5
53E
100
AcDbEntity
  8
detail
 62
    16
  6
CONTINUOUS
370
     5
100
AcDbCircle
 10
18.32307758
 20
-55.68982423
 30
0.0
 40
0.00083939
100
AcDbArc
 50
133.968829
 51
208.96885202
  0
ARC
  5
53F
100
AcDbEntity
  8
detail
 62
    16
  6
CONTINUOUS
370
     5
100
AcDbCircle
 10
18.32294935
 20
-55.68901491
 30
0.0
 40
0.00016788
100
AcDbArc
 50
333.96879802
 51
133.96885097
  0
ARC
  5
540
100
AcDbEntity
  8
detail
 62
    16
  6
CONTINUOUS
370
     5
100
AcDbCircle
 10
18.32306414
 20
-55.68979996
 30
0.0
 40
0.0002798
100
AcDbArc
 50
153.96882898
 51
208.96883104
  0
ARC
  5
541
100
AcDbEntity
  8
detail
 62
    16
  6
CONTINUOUS
370
     5
100
AcDbCircle
 10
18.32346744
 20
-55.68995076
 30
0.0
 40
0.00055959
100
AcDbArc
 50
208.96884602
 51
313.96884102
  0
ARC
  5
542
100
AcDbEntity
  8
detail
 62
    16
  6
CONTINUOUS
370
     5
100
AcDbCircle
 10
18.32345537
 20
-55.69050666
 30
0.0
 40
0.00083939
100
AcDbArc
 50
208.96883701
 51
313.96883703
  0
ARC
  5
543
100
AcDbEntity
  8
detail
 62
    16
  6
CONTINUOUS
370
     5
100
AcDbCircle
 10
18.32307758
 20
-55.68982423
 30
0.0
 40
0.00083939
100
AcDbArc
 50
133.968829
 51
208.96885202
  0
ARC
  5
544
100
AcDbEntity
  8
detail
 62
    16
  6
CONTINUOUS
370
     5
100
AcDbCircle
 10
18.32294935
 20
-55.68901491
 30
0.0
 40
0.00016788
100
AcDbArc
 50
333.96879802
 51
133.96885097
  0
ARC
  5
545
100
AcDbEntity
  8
detail
 62
    16
  6
CONTINUOUS
370
     5
100
AcDbCircle
 10
18.32306414
 20
-55.68979996
 30
0.0
 40
0.0002798
100
AcDbArc
 50
153.96882898
 51
208.96883104
  0
ARC
  5
546
100
AcDbEntity
  8
detail
 62
    16
  6
CONTINUOUS
370
     5
100
AcDbCircle
 10
18.32346744
 20
-55.68995076
 30
0.0
 40
0.00055959
100
AcDbArc
 50
208.96884602
 51
313.96884102
  0
ARC
  5
547
100
AcDbEntity
  8
detail
 62
    16
  6
CONTINUOUS
370
     5
100
AcDbCircle
 10
18.32345537
 20
-55.69050666
 30
0.0
 40
0.00083939
100
AcDbArc
 50
208.96883701
 51
313.96883703
  0
ARC
  5
548
100
AcDbEntity
  8
detail
 62
    16
  6
CONTINUOUS
370
     5
100
AcDbCircle
 10
18.32307758
 20
-55.68982423
 30
0.0
 40
0.00083939
100
AcDbArc
 50
133.968829
 51
208.96885202
  0
ARC
  5
549
100
AcDbEntity
  8
detail
 62
    16
  6
CONTINUOUS
370
     5
100
AcDbCircle
 10
18.32294935
 20
-55.68901491
 30
0.0
 40
0.00016788
100
AcDbArc
 50
333.96879802
 51
133.96885097
  0
ARC
  5
54A
100
AcDbEntity
  8
detail
 62
    16
  6
CONTINUOUS
370
     5
100
AcDbCircle
 10
18.32306414
 20
-55.68979996
 30
0.0
 40
0.0002798
100
AcDbArc
 50
153.96882898
 51
208.96883104
  0
ARC
  5
54B
100
AcDbEntity
  8
detail
 62
    16
  6
CONTINUOUS
370
     5
100
AcDbCircle
 10
18.32346744
 20
-55.68995076
 30
0.0
 40
0.00055959
100
AcDbArc
 50
208.96884602
 51
313.96884102
  0
ARC
  5
54C
100
AcDbEntity
  8
detail
 62
    16
  6
CONTINUOUS
370
     5
100
AcDbCircle
 10
18.32345537
 20
-55.69050666
 30
0.0
 40
0.00083939
100
AcDbArc
 50
208.96883701
 51
313.96883703
  0
ARC
  5
54D
100
AcDbEntity
  8
detail
 62
    16
  6
CONTINUOUS
370
     5
100
AcDbCircle
 10
18.32307758
 20
-55.68982423
 30
0.0
 40
0.00083939
100
AcDbArc
 50
133.968829
 51
208.96885202
  0
ARC
  5
54E
100
AcDbEntity
  8
detail
 62
    16
  6
CONTINUOUS
370
     5
100
AcDbCircle
 10
18.32294935
 20
-55.68901491
 30
0.0
 40
0.00016788
100
AcDbArc
 50
333.96879802
 51
133.96885097
  0
ARC
  5
54F
100
AcDbEntity
  8
detail
 62
    16
  6
CONTINUOUS
370
     5
100
AcDbCircle
 10
18.32306414
 20
-55.68979996
 30
0.0
 40
0.0002798
100
AcDbArc
 50
153.96882898
 51
208.96883104
  0
ARC
  5
550
100
AcDbEntity
  8
detail
 62
    16
  6
CONTINUOUS
370
     5
100
AcDbCircle
 10
18.32346744
 20
-55.68995076
 30
0.0
 40
0.00055959
100
AcDbArc
 50
208.96884602
 51
313.96884102
  0
ARC
  5
551
100
AcDbEntity
  8
detail
 62
    16
  6
CONTINUOUS
370
     5
100
AcDbCircle
 10
18.32497739
 20
-55.68704287
 30
0.0
 40
0.00218241
100
AcDbArc
 50
313.96883998
 51
322.52223806
  0
ARC
  5
552
100
AcDbEntity
  8
detail
 62
    16
  6
CONTINUOUS
370
     5
100
AcDbCircle
 10
18.33018538
 20
-55.68399261
 30
0.0
 40
9.3310999970978E-05
100
AcDbArc
 50
310.914393
 51
70.78877603
  0
ARC
  5
553
100
AcDbEntity
  8
detail
 62
    16
  6
CONTINUOUS
370
     5
100
AcDbCircle
 10
18.32455416
 20
-55.68721993
 30
0.0
 40
0.00183585
100
AcDbArc
 50
43.96882999
 51
133.96882901
  0
ARC
  5
554
100
AcDbEntity
  8
detail
 62
    16
  6
CONTINUOUS
370
     5
100
AcDbCircle
 10
18.32808586
 20
-55.68787648
 30
0.0
 40
0.00531476
100
AcDbArc
 50
55.689104
 51
118.564341
  0
ARC
  5
555
100
AcDbEntity
  8
detail
 62
    16
  6
CONTINUOUS
370
     5
100
AcDbCircle
 10
18.32814516
 20
-55.68713525
 30
0.0
 40
0.00384523
100
AcDbArc
 50
57.27584
 51
122.73106
  0
ARC
  5
556
100
AcDbEntity
  8
detail
 62
    16
  6
CONTINUOUS
370
     5
100
AcDbCircle
 10
18.32052419
 20
-55.68827019
 30
0.0
 40
0.0002798
100
AcDbArc
 50
313.96882185
 51
329.12414716
  0
ARC
  5
557
100
AcDbEntity
  8
detail
 62
    16
  6
CONTINUOUS
370
     5
100
AcDbCircle
 10
18.3202202
 20
-55.68856343
 30
0.0
 40
0.0002798
100
AcDbArc
 50
149.54368901
 51
313.96884301
  0
ARC
  5
558
100
AcDbEntity
  8
detail
 62
    16
  6
CONTINUOUS
370
     5
100
AcDbCircle
 10
18.32052419
 20
-55.68827019
 30
0.0
 40
0.0002798
100
AcDbArc
 50
313.96882185
 51
329.12414716
  0
ARC
  5
559
100
AcDbEntity
  8
detail
 62
    16
  6
CONTINUOUS
370
     5
100
AcDbCircle
 10
18.3202202
 20
-55.68856343
 30
0.0
 40
0.0002798
100
AcDbArc
 50
149.54368901
 51
313.96884301
  0
ARC
  5
55A
100
AcDbEntity
  8
detail
 62
    16
  6
CONTINUOUS
370
     5
100
AcDbCircle
 10
18.32052419
 20
-55.68827019
 30
0.0
 40
0.0002798
100
AcDbArc
 50
313.96882185
 51
329.12414716
  0
ARC
  5
55B
100
AcDbEntity
  8
detail
 62
    16
  6
CONTINUOUS
370
     5
100
AcDbCircle
 10
18.3202202
 20
-55.68856343
 30
0.0
 40
0.0002798
100
AcDbArc
 50
149.54368901
 51
313.96884301
  0
ARC
  5
55C
100
AcDbEntity
  8
detail
 62
    16
  6
CONTINUOUS
370
     5
100
AcDbCircle
 10
18.32052419
 20
-55.68827019
 30
0.0
 40
0.0002798
100
AcDbArc
 50
313.96882185
 51
329.12414716
  0
ARC
  5
55D
100
AcDbEntity
  8
detail
 62
    16
  6
CONTINUOUS
370
     5
100
AcDbCircle
 10
18.3202202
 20
-55.68856343
 30
0.0
 40
0.0002798
100
AcDbArc
 50
149.54368901
 51
313.96884301
  0
ARC
  5
55E
100
AcDbEntity
  8
detail
 62
    16
  6
CONTINUOUS
370
     5
100
AcDbCircle
 10
18.32052419
 20
-55.68827019
 30
0.0
 40
0.0002798
100
AcDbArc
 50
313.96882185
 51
329.12414716
  0
ARC
  5
55F
100
AcDbEntity
  8
detail
 62
    16
  6
CONTINUOUS
370
     5
100
AcDbCircle
 10
18.3202202
 20
-55.68856343
 30
0.0
 40
0.0002798
100
AcDbArc
 50
149.54368901
 51
313.96884301
  0
ARC
  5
560
100
AcDbEntity
  8
detail
 62
    16
  6
CONTINUOUS
370
     5
100
AcDbCircle
 10
18.32052419
 20
-55.68827019
 30
0.0
 40
0.0002798
100
AcDbArc
 50
313.96882185
 51
329.12414716
  0
ARC
  5
561
100
AcDbEntity
  8
detail
 62
    16
  6
CONTINUOUS
370
     5
100
AcDbCircle
 10
18.3202202
 20
-55.68856343
 30
0.0
 40
0.0002798
100
AcDbArc
 50
149.54368901
 51
313.96884301
  0
ARC
  5
562
100
AcDbEntity
  8
detail
 62
    16
  6
CONTINUOUS
370
     5
100
AcDbCircle
 10
18.32052419
 20
-55.68827019
 30
0.0
 40
0.0002798
100
AcDbArc
 50
313.96882185
 51
329.12414716
  0
ARC
  5
563
100
AcDbEntity
  8
detail
 62
    16
  6
CONTINUOUS
370
     5
100
AcDbCircle
 10
18.3202202
 20
-55.68856343
 30
0.0
 40
0.0002798
100
AcDbArc
 50
149.54368901
 51
313.96884301
  0
ARC
  5
564
100
AcDbEntity
  8
detail
 62
    16
  6
CONTINUOUS
370
     5
100
AcDbCircle
 10
18.32052419
 20
-55.68827019
 30
0.0
 40
0.0002798
100
AcDbArc
 50
313.96882185
 51
329.12414716
  0
ARC
  5
565
100
AcDbEntity
  8
detail
 62
    16
  6
CONTINUOUS
370
     5
100
AcDbCircle
 10
18.3202202
 20
-55.68856343
 30
0.0
 40
0.0002798
100
AcDbArc
 50
149.54368901
 51
313.96884301
  0
ARC
  5
566
100
AcDbEntity
  8
detail
 62
    16
  6
CONTINUOUS
370
     5
100
AcDbCircle
 10
18.32052419
 20
-55.68827019
 30
0.0
 40
0.0002798
100
AcDbArc
 50
313.96882185
 51
329.12414716
  0
ARC
  5
567
100
AcDbEntity
  8
detail
 62
    16
  6
CONTINUOUS
370
     5
100
AcDbCircle
 10
18.3202202
 20
-55.68856343
 30
0.0
 40
0.0002798
100
AcDbArc
 50
149.54368901
 51
313.96884301
  0
ARC
  5
568
100
AcDbEntity
  8
detail
 62
    16
  6
CONTINUOUS
370
     5
100
AcDbCircle
 10
18.32052419
 20
-55.68827019
 30
0.0
 40
0.0002798
100
AcDbArc
 50
313.96882185
 51
329.12414716
  0
ARC
  5
569
100
AcDbEntity
  8
detail
 62
    16
  6
CONTINUOUS
370
     5
100
AcDbCircle
 10
18.3202202
 20
-55.68856343
 30
0.0
 40
0.0002798
100
AcDbArc
 50
149.54368901
 51
313.96884301
  0
ARC
  5
56A
100
AcDbEntity
  8
detail
 62
    16
  6
CONTINUOUS
370
     5
100
AcDbCircle
 10
18.32052419
 20
-55.68827019
 30
0.0
 40
0.0002798
100
AcDbArc
 50
313.96882185
 51
329.12414716
  0
ARC
  5
56B
100
AcDbEntity
  8
detail
 62
    16
  6
CONTINUOUS
370
     5
100
AcDbCircle
 10
18.3202202
 20
-55.68856343
 30
0.0
 40
0.0002798
100
AcDbArc
 50
149.54368901
 51
313.96884301
  0
ARC
  5
56C
100
AcDbEntity
  8
detail
 62
    16
  6
CONTINUOUS
370
     5
100
AcDbCircle
 10
18.32052419
 20
-55.68827019
 30
0.0
 40
0.0002798
100
AcDbArc
 50
313.96882185
 51
329.12414716
  0
ARC
  5
56D
100
AcDbEntity
  8
detail
 62
    16
  6
CONTINUOUS
370
     5
100
AcDbCircle
 10
18.3202202
 20
-55.68856343
 30
0.0
 40
0.0002798
100
AcDbArc
 50
149.54368901
 51
313.96884301
  0
ARC
  5
56E
100
AcDbEntity
  8
detail
 62
    16
  6
CONTINUOUS
370
     5
100
AcDbCircle
 10
18.32052419
 20
-55.68827019
 30
0.0
 40
0.0002798
100
AcDbArc
 50
313.96882185
 51
329.12414716
  0
ARC
  5
56F
100
AcDbEntity
  8
detail
 62
    16
  6
CONTINUOUS
370
     5
100
AcDbCircle
 10
18.3202202
 20
-55.68856343
 30
0.0
 40
0.0002798
100
AcDbArc
 50
149.54368901
 51
313.96884301
  0
ARC
  5
570
100
AcDbEntity
  8
detail
 62
    16
  6
CONTINUOUS
370
     5
100
AcDbCircle
 10
18.32052419
 20
-55.68827019
 30
0.0
 40
0.0002798
100
AcDbArc
 50
313.96882185
 51
329.12414716
  0
ARC
  5
571
100
AcDbEntity
  8
detail
 62
    16
  6
CONTINUOUS
370
     5
100
AcDbCircle
 10
18.3202202
 20
-55.68856343
 30
0.0
 40
0.0002798
100
AcDbArc
 50
149.54368901
 51
313.96884301
  0
ARC
  5
572
100
AcDbEntity
  8
detail
 62
    16
  6
CONTINUOUS
370
     5
100
AcDbCircle
 10
18.32052419
 20
-55.68827019
 30
0.0
 40
0.0002798
100
AcDbArc
 50
313.96882185
 51
329.12414716
  0
ARC
  5
573
100
AcDbEntity
  8
detail
 62
    16
  6
CONTINUOUS
370
     5
100
AcDbCircle
 10
18.3202202
 20
-55.68856343
 30
0.0
 40
0.0002798
100
AcDbArc
 50
149.54368901
 51
313.96884301
  0
ARC
  5
574
100
AcDbEntity
  8
detail
 62
    16
  6
CONTINUOUS
370
     5
100
AcDbCircle
 10
18.32052419
 20
-55.68827019
 30
0.0
 40
0.0002798
100
AcDbArc
 50
313.96882185
 51
329.12414716
  0
ARC
  5
575
100
AcDbEntity
  8
detail
 62
    16
  6
CONTINUOUS
370
     5
100
AcDbCircle
 10
18.3202202
 20
-55.68856343
 30
0.0
 40
0.0002798
100
AcDbArc
 50
149.54368901
 51
313.96884301
  0
ARC
  5
576
100
AcDbEntity
  8
detail
 62
    16
  6
CONTINUOUS
370
     5
100
AcDbCircle
 10
18.32453372
 20
-55.68710557
 30
0.0
 40
0.0017738
100
AcDbArc
 50
313.96884102
 51
40.85046
  0
ARC
  5
577
100
AcDbEntity
  8
detail
 62
    16
  6
CONTINUOUS
370
     5
100
AcDbCircle
 10
18.32453372
 20
-55.68710557
 30
0.0
 40
0.0017738
100
AcDbArc
 50
313.96884102
 51
40.85046
  0
ARC
  5
578
100
AcDbEntity
  8
detail
 62
    16
  6
CONTINUOUS
370
     5
100
AcDbCircle
 10
18.33103867
 20
-55.68458414
 30
0.0
 40
0.00094817
100
AcDbArc
 50
146.215737
 51
62.27187
  0
ARC
  5
579
100
AcDbEntity
  8
detail
 62
    16
  6
CONTINUOUS
370
     5
100
AcDbCircle
 10
18.32453372
 20
-55.68710557
 30
0.0
 40
0.00251529
100
AcDbArc
 50
329.56322102
 51
82.937731
  0
ARC
  5
57A
100
AcDbEntity
  8
detail
 62
    16
  6
CONTINUOUS
370
     5
100
AcDbCircle
 10
18.37543332
 20
-55.73784293
 30
0.0
 40
0.0017143
100
AcDbArc
 50
105.310213
 51
191.91019001
  0
ARC
  5
57B
100
AcDbEntity
  8
detail
 62
    16
  6
CONTINUOUS
370
     5
100
AcDbCircle
 10
18.3934988
 20
-55.73276019
 30
0.0
 40
0.02047772
100
AcDbArc
 50
331.12443302
 51
344.60420202
  0
ARC
  5
57C
100
AcDbEntity
  8
detail
 62
    16
  6
CONTINUOUS
370
     5
100
AcDbCircle
 10
18.3934988
 20
-55.73276019
 30
0.0
 40
0.02047772
100
AcDbArc
 50
195.39581802
 51
208.87558602
  0
ARC
  5
57D
100
AcDbEntity
  8
detail
 62
    16
  6
CONTINUOUS
370
     5
100
AcDbCircle
 10
18.41156428
 20
-55.72767744
 30
0.0
 40
0.0017143
100
AcDbArc
 50
285.31022302
 51
11.910181
  0
ARC
  5
57E
100
AcDbEntity
  8
detail
 62
    16
  6
CONTINUOUS
370
     5
100
AcDbCircle
 10
18.3934988
 20
-55.73276019
 30
0.0
 40
0.02047772
100
AcDbArc
 50
331.12443302
 51
344.60420202
  0
ARC
  5
57F
100
AcDbEntity
  8
detail
 62
    16
  6
CONTINUOUS
370
     5
100
AcDbCircle
 10
18.37543332
 20
-55.72767744
 30
0.0
 40
0.0017143
100
AcDbArc
 50
168.089819
 51
254.68979702
  0
ARC
  5
580
100
AcDbEntity
  8
detail
 62
    16
  6
CONTINUOUS
370
     5
100
AcDbCircle
 10
18.3934988
 20
-55.73276019
 30
0.0
 40
0.02047772
100
AcDbArc
 50
195.39581802
 51
208.87558602
  0
ARC
  5
581
100
AcDbEntity
  8
detail
 62
    16
  6
CONTINUOUS
370
     5
100
AcDbCircle
 10
18.41156428
 20
-55.72767744
 30
0.0
 40
0.0017143
100
AcDbArc
 50
285.31022302
 51
11.910181
  0
ARC
  5
582
100
AcDbEntity
  8
detail
 62
    16
  6
CONTINUOUS
370
     5
100
AcDbCircle
 10
18.3934988
 20
-55.73276019
 30
0.0
 40
0.02047772
100
AcDbArc
 50
331.12443302
 51
344.60420202
  0
ARC
  5
583
100
AcDbEntity
  8
detail
 62
    16
  6
CONTINUOUS
370
     5
100
AcDbCircle
 10
18.37543332
 20
-55.72767744
 30
0.0
 40
0.0017143
100
AcDbArc
 50
168.089819
 51
254.68979702
  0
ARC
  5
584
100
AcDbEntity
  8
detail
 62
    16
  6
CONTINUOUS
370
     5
100
AcDbCircle
 10
18.3934988
 20
-55.73276019
 30
0.0
 40
0.02047772
100
AcDbArc
 50
195.39581802
 51
208.87558602
  0
ARC
  5
585
100
AcDbEntity
  8
detail
 62
    16
  6
CONTINUOUS
370
     5
100
AcDbCircle
 10
18.41156428
 20
-55.72767744
 30
0.0
 40
0.0017143
100
AcDbArc
 50
285.31022302
 51
11.910181
  0
ARC
  5
586
100
AcDbEntity
  8
detail
 62
    16
  6
CONTINUOUS
370
     5
100
AcDbCircle
 10
18.41156428
 20
-55.73784293
 30
0.0
 40
0.0017143
100
AcDbArc
 50
348.08983002
 51
74.68978699
  0
ARC
  5
587
100
AcDbEntity
  8
detail
 62
    16
  6
CONTINUOUS
370
     5
100
AcDbCircle
 10
18.3934988
 20
-55.73276019
 30
0.0
 40
0.02047772
100
AcDbArc
 50
331.12443302
 51
344.60420202
  0
ARC
  5
588
100
AcDbEntity
  8
detail
 62
    16
  6
CONTINUOUS
370
     5
100
AcDbCircle
 10
18.37543332
 20
-55.72767744
 30
0.0
 40
0.0017143
100
AcDbArc
 50
168.089819
 51
254.68979702
  0
ARC
  5
589
100
AcDbEntity
  8
detail
 62
    16
  6
CONTINUOUS
370
     5
100
AcDbCircle
 10
18.3934988
 20
-55.73276019
 30
0.0
 40
0.02047772
100
AcDbArc
 50
195.39581802
 51
208.87558602
  0
ARC
  5
58A
100
AcDbEntity
  8
detail
 62
    16
  6
CONTINUOUS
370
     5
100
AcDbCircle
 10
18.3934988
 20
-55.76019445
 30
0.0
 40
0.00725048
100
AcDbArc
 50
204.51138602
 51
335.48863402
  0
ARC
  5
58B
100
AcDbEntity
  8
detail
 62
    16
  6
CONTINUOUS
370
     5
100
AcDbCircle
 10
18.37498067
 20
-55.73276019
 30
0.0
 40
0.00342928
100
AcDbArc
 50
270.00001002
 51
90.0
  0
ARC
  5
58C
100
AcDbEntity
  8
detail
 62
    16
  6
CONTINUOUS
370
     5
100
AcDbCircle
 10
18.41201693
 20
-55.73276019
 30
0.0
 40
0.00342928
100
AcDbArc
 50
90.0
 51
270.00001002
  0
ARC
  5
58D
100
AcDbEntity
  8
detail
 62
    16
  6
CONTINUOUS
370
     5
100
AcDbCircle
 10
18.41156428
 20
-55.72767744
 30
0.0
 40
0.0017143
100
AcDbArc
 50
285.31022302
 51
11.910181
  0
ARC
  5
58E
100
AcDbEntity
  8
detail
 62
    16
  6
CONTINUOUS
370
     5
100
AcDbCircle
 10
18.41156428
 20
-55.73784293
 30
0.0
 40
0.0017143
100
AcDbArc
 50
348.08983002
 51
74.68978699
  0
ARC
  5
58F
100
AcDbEntity
  8
detail
 62
    16
  6
CONTINUOUS
370
     5
100
AcDbCircle
 10
18.37543332
 20
-55.72767744
 30
0.0
 40
0.0017143
100
AcDbArc
 50
168.089819
 51
254.68979702
  0
ARC
  5
590
100
AcDbEntity
  8
detail
 62
    16
  6
CONTINUOUS
370
     5
100
AcDbCircle
 10
18.3934988
 20
-55.73276019
 30
0.0
 40
0.02047772
100
AcDbArc
 50
15.395808
 51
164.604192
  0
ARC
  5
591
100
AcDbEntity
  8
detail
 62
    16
  6
CONTINUOUS
370
     5
100
AcDbCircle
 10
18.3934988
 20
-55.76019445
 30
0.0
 40
0.00725048
100
AcDbArc
 50
204.51138602
 51
335.48863402
  0
ARC
  5
592
100
AcDbEntity
  8
detail
 62
    16
  6
CONTINUOUS
370
     5
100
AcDbCircle
 10
18.3934988
 20
-55.76019445
 30
0.0
 40
0.00725048
100
AcDbArc
 50
204.51138602
 51
335.48863402
  0
ARC
  5
593
100
AcDbEntity
  8
detail
 62
    16
  6
CONTINUOUS
370
     5
100
AcDbCircle
 10
18.3934988
 20
-55.76019445
 30
0.0
 40
0.00725048
100
AcDbArc
 50
204.51138602
 51
335.48863402
  0
ARC
  5
594
100
AcDbEntity
  8
detail
 62
    16
  6
CONTINUOUS
370
     5
100
AcDbCircle
 10
18.3484791
 20
-55.77826347
 30
0.0
 40
0.00559898
100
AcDbArc
 50
39.169975
 51
140.830025
  0
ARC
  5
595
100
AcDbEntity
  8
detail
 62
    16
  6
CONTINUOUS
370
     5
100
AcDbCircle
 10
18.3484791
 20
-55.80334692
 30
0.0
 40
0.0175
100
AcDbArc
 50
7.1465427978649E-11
 51
180.0
  0
ARC
  5
596
100
AcDbEntity
  8
detail
 62
    16
  6
CONTINUOUS
370
     5
100
AcDbCircle
 10
18.35141444
 20
-55.84934692
 30
0.0
 40
0.0005
100
AcDbArc
 50
90.0
 51
270.00001002
  0
ARC
  5
597
100
AcDbEntity
  8
detail
 62
    16
  6
CONTINUOUS
370
     5
100
AcDbCircle
 10
18.34010316
 20
-55.80524829
 30
0.0
 40
0.00082922
100
AcDbArc
 50
270.00001001
 51
4.0219064448077E-09
  0
ARC
  5
598
100
AcDbEntity
  8
detail
 62
    16
  6
CONTINUOUS
370
     5
100
AcDbCircle
 10
18.3314791
 20
-55.84935106
 30
0.0
 40
0.0005
100
AcDbArc
 50
180.00001002
 51
360.00001001
  0
ARC
  5
599
100
AcDbEntity
  8
detail
 62
    16
  6
CONTINUOUS
370
     5
100
AcDbCircle
 10
18.3329791
 20
-55.80534692
 30
0.0
 40
0.002
100
AcDbArc
 50
90.0
 51
180.00001002
  0
ARC
  5
59A
100
AcDbEntity
  8
detail
 62
    16
  6
CONTINUOUS
370
     5
100
AcDbCircle
 10
18.35850394
 20
-55.84756557
 30
0.0
 40
0.00231974
100
AcDbArc
 50
130.316118
 51
213.52956402
  0
ARC
  5
59B
100
AcDbEntity
  8
detail
 62
    16
  6
CONTINUOUS
370
     5
100
AcDbCircle
 10
18.36549763
 20
-55.80384692
 30
0.0
 40
0.0005
100
AcDbArc
 50
360.00001001
 51
156.831906
  0
ARC
  5
59C
100
AcDbEntity
  8
detail
 62
    16
  6
CONTINUOUS
370
     5
100
AcDbCircle
 10
18.35915901
 20
-55.84302683
 30
0.0
 40
0.0058201
100
AcDbArc
 50
270.00001002
 51
8.5953579082095E-10
  0
ARC
  5
59D
100
AcDbEntity
  8
detail
 62
    16
  6
CONTINUOUS
370
     5
100
AcDbCircle
 10
18.35915901
 20
-55.84302683
 30
0.0
 40
0.0068201
100
AcDbArc
 50
270.00001002
 51
6.7238041335981E-10
  0
ARC
  5
59E
100
AcDbEntity
  8
detail
 62
    16
  6
CONTINUOUS
370
     5
100
AcDbCircle
 10
18.34010316
 20
-55.80417614
 30
0.0
 40
0.00082922
100
AcDbArc
 50
27.04337597
 51
90.00000003
  0
ARC
  5
59F
100
AcDbEntity
  8
detail
 62
    16
  6
CONTINUOUS
370
     5
100
AcDbCircle
 10
18.3639791
 20
-55.80579913
 30
0.0
 40
0.002
100
AcDbArc
 50
58.03346899
 51
90.00000001
  0
ARC
  5
5A0
100
AcDbEntity
  8
detail
 62
    16
  6
CONTINUOUS
370
     5
100
AcDbCircle
 10
18.3329791
 20
-55.80534692
 30
0.0
 40
0.001
100
AcDbArc
 50
5.633048
 51
180.00001002
  0
ARC
  5
5A1
100
AcDbEntity
  8
detail
 62
    16
  6
CONTINUOUS
370
     5
100
AcDbCircle
 10
18.3348035
 20
-55.80524829
 30
0.0
 40
0.00082922
100
AcDbArc
 50
180.0
 51
270.00001002
  0
ARC
  5
5A2
100
AcDbEntity
  8
detail
 62
    16
  6
CONTINUOUS
370
     5
100
AcDbCircle
 10
18.3639791
 20
-55.80579913
 30
0.0
 40
0.001
100
AcDbArc
 50
4.1688166319514E-10
 51
90.0
  0
ARC
  5
5A3
100
AcDbEntity
  8
detail
 62
    16
  6
CONTINUOUS
370
     5
100
AcDbCircle
 10
18.3414298
 20
-55.80513365
 30
0.0
 40
0.00049742
100
AcDbArc
 50
137.73739802
 51
179.99999998
  0
ARC
  5
5A4
100
AcDbEntity
  8
detail
 62
    16
  6
CONTINUOUS
370
     5
100
AcDbCircle
 10
18.3484791
 20
-55.84529681
 30
0.0
 40
0.0005
100
AcDbArc
 50
90.0
 51
270.00001002
  0
ARC
  5
5A5
100
AcDbEntity
  8
detail
 62
    16
  6
CONTINUOUS
370
     5
100
AcDbCircle
 10
18.35850394
 20
-55.84756557
 30
0.0
 40
0.0014
100
AcDbArc
 50
118.152177
 51
246.24094702
  0
ARC
  5
5A6
100
AcDbEntity
  8
detail
 62
    16
  6
CONTINUOUS
370
     5
100
AcDbCircle
 10
18.35890685
 20
-55.84523332
 30
0.0
 40
0.00044131
100
AcDbArc
 50
321.13811601
 51
81.540532
  0
ARC
  5
5A7
100
AcDbEntity
  8
detail
 62
    16
  6
CONTINUOUS
370
     5
100
AcDbCircle
 10
18.38488431
 20
-55.77777943
 30
0.0
 40
0.00275
100
AcDbArc
 50
270.00001002
 51
90.0
  0
ARC
  5
5A8
100
AcDbEntity
  8
detail
 62
    16
  6
CONTINUOUS
370
     5
100
AcDbCircle
 10
18.44038431
 20
-55.77777943
 30
0.0
 40
0.00275
100
AcDbArc
 50
90.0
 51
270.00001002
  0
ARC
  5
5A9
100
AcDbEntity
  8
detail
 62
    16
  6
CONTINUOUS
370
     5
100
AcDbCircle
 10
18.41738431
 20
-55.77777943
 30
0.0
 40
0.00275
100
AcDbArc
 50
270.00001002
 51
90.0
  0
ARC
  5
5AA
100
AcDbEntity
  8
detail
 62
    16
  6
CONTINUOUS
370
     5
100
AcDbCircle
 10
18.40788431
 20
-55.77777943
 30
0.0
 40
0.00275
100
AcDbArc
 50
90.0
 51
270.00001002
  0
ARC
  5
5AB
100
AcDbEntity
  8
detail
 62
    16
  6
CONTINUOUS
370
     5
100
AcDbCircle
 10
18.44567166
 20
-55.83577943
 30
0.0
 40
0.0005
100
AcDbArc
 50
90.0
 51
180.00001002
  0
ARC
  5
5AC
100
AcDbEntity
  8
detail
 62
    16
  6
CONTINUOUS
370
     5
100
AcDbCircle
 10
18.37959696
 20
-55.83577943
 30
0.0
 40
0.0005
100
AcDbArc
 50
360.00001002
 51
90.0
  0
ARC
  5
5AD
100
AcDbEntity
  8
detail
 62
    16
  6
CONTINUOUS
370
     5
100
AcDbCircle
 10
18.44257077
 20
-55.84881927
 30
0.0
 40
0.0035
100
AcDbArc
 50
72.271012
 51
360.00001002
  0
ARC
  5
5AE
100
AcDbEntity
  8
detail
 62
    16
  6
CONTINUOUS
370
     5
100
AcDbCircle
 10
18.38269785
 20
-55.84881927
 30
0.0
 40
0.0035
100
AcDbArc
 50
180.00001002
 51
107.728988
  0
ARC
  5
5AF
100
AcDbEntity
  8
detail
 62
    16
  6
CONTINUOUS
370
     5
100
AcDbCircle
 10
18.38488431
 20
-55.80777943
 30
0.0
 40
0.00275
100
AcDbArc
 50
270.00001002
 51
90.0
  0
ARC
  5
5B0
100
AcDbEntity
  8
detail
 62
    16
  6
CONTINUOUS
370
     5
100
AcDbCircle
 10
18.38488431
 20
-55.78777943
 30
0.0
 40
0.00275
100
AcDbArc
 50
270.00001002
 51
90.0
  0
ARC
  5
5B1
100
AcDbEntity
  8
detail
 62
    16
  6
CONTINUOUS
370
     5
100
AcDbCircle
 10
18.38488431
 20
-55.79777943
 30
0.0
 40
0.00275
100
AcDbArc
 50
270.00001002
 51
90.0
  0
ARC
  5
5B2
100
AcDbEntity
  8
detail
 62
    16
  6
CONTINUOUS
370
     5
100
AcDbCircle
 10
18.44038431
 20
-55.79777943
 30
0.0
 40
0.00275
100
AcDbArc
 50
90.0
 51
270.00001002
  0
ARC
  5
5B3
100
AcDbEntity
  8
detail
 62
    16
  6
CONTINUOUS
370
     5
100
AcDbCircle
 10
18.44038431
 20
-55.78777943
 30
0.0
 40
0.00275
100
AcDbArc
 50
90.0
 51
270.00001002
  0
ARC
  5
5B4
100
AcDbEntity
  8
detail
 62
    16
  6
CONTINUOUS
370
     5
100
AcDbCircle
 10
18.44038431
 20
-55.80777943
 30
0.0
 40
0.00275
100
AcDbArc
 50
90.0
 51
270.00001002
  0
ARC
  5
5B5
100
AcDbEntity
  8
detail
 62
    16
  6
CONTINUOUS
370
     5
100
AcDbCircle
 10
18.40788431
 20
-55.79777943
 30
0.0
 40
0.00275
100
AcDbArc
 50
90.0
 51
270.00001002
  0
ARC
  5
5B6
100
AcDbEntity
  8
detail
 62
    16
  6
CONTINUOUS
370
     5
100
AcDbCircle
 10
18.41738431
 20
-55.79777943
 30
0.0
 40
0.00275
100
AcDbArc
 50
270.00001002
 51
90.0
  0
ARC
  5
5B7
100
AcDbEntity
  8
detail
 62
    16
  6
CONTINUOUS
370
     5
100
AcDbCircle
 10
18.40788431
 20
-55.80777943
 30
0.0
 40
0.00275
100
AcDbArc
 50
90.0
 51
270.00001002
  0
ARC
  5
5B8
100
AcDbEntity
  8
detail
 62
    16
  6
CONTINUOUS
370
     5
100
AcDbCircle
 10
18.41738431
 20
-55.80777943
 30
0.0
 40
0.00275
100
AcDbArc
 50
270.00001002
 51
90.0
  0
ARC
  5
5B9
100
AcDbEntity
  8
detail
 62
    16
  6
CONTINUOUS
370
     5
100
AcDbCircle
 10
18.41738431
 20
-55.78777943
 30
0.0
 40
0.00275
100
AcDbArc
 50
270.00001002
 51
90.0
  0
ARC
  5
5BA
100
AcDbEntity
  8
detail
 62
    16
  6
CONTINUOUS
370
     5
100
AcDbCircle
 10
18.40788431
 20
-55.78777943
 30
0.0
 40
0.00275
100
AcDbArc
 50
90.0
 51
270.00001002
  0
ARC
  5
5BB
100
AcDbEntity
  8
detail
 62
    16
  6
CONTINUOUS
370
     5
100
AcDbCircle
 10
18.38858942
 20
-55.83896405
 30
0.0
 40
0.00044887
100
AcDbArc
 50
315.00001003
 51
135.00000001
  0
ARC
  5
5BC
100
AcDbEntity
  8
detail
 62
    16
  6
CONTINUOUS
370
     5
100
AcDbCircle
 10
18.43694912
 20
-55.83896405
 30
0.0
 40
0.00044887
100
AcDbArc
 50
44.99999999
 51
225.00001001
  0
ARC
  5
5BD
100
AcDbEntity
  8
detail
 62
    16
  6
CONTINUOUS
370
     5
100
AcDbCircle
 10
18.41118328
 20
-55.70817523
 30
0.0
 40
0.00081475
100
AcDbArc
 50
45.00000001
 51
134.99999999
  0
ARC
  5
5BE
100
AcDbEntity
  8
detail
 62
    16
  6
CONTINUOUS
370
     5
100
AcDbCircle
 10
18.41770823
 20
-55.71470019
 30
0.0
 40
0.00081475
100
AcDbArc
 50
315.00001002
 51
44.99999999
  0
ARC
  5
5BF
100
AcDbEntity
  8
detail
 62
    16
  6
CONTINUOUS
370
     5
100
AcDbCircle
 10
18.32103618
 20
-55.88793866
 30
0.0
 40
0.00175248
100
AcDbArc
 50
6.91623
 51
177.920678
  0
ARC
  5
5C0
100
AcDbEntity
  8
detail
 62
    16
  6
CONTINUOUS
370
     5
100
AcDbCircle
 10
18.32103618
 20
-55.88793866
 30
0.0
 40
0.00148287
100
AcDbArc
 50
8.297827
 51
177.920678
  0
ARC
  5
5C1
100
AcDbEntity
  8
detail
 62
    16
  6
CONTINUOUS
370
     5
100
AcDbCircle
 10
18.32103618
 20
-55.88793866
 30
0.0
 40
0.00121325
100
AcDbArc
 50
357.82107102
 51
182.17665401
  0
ARC
  5
5C2
100
AcDbEntity
  8
detail
 62
    16
  6
CONTINUOUS
370
     5
100
AcDbCircle
 10
18.3225586
 20
-55.88852267
 30
0.0
 40
0.00033028
100
AcDbArc
 50
177.821059
 51
8.12421701
  0
ARC
  5
5C3
100
AcDbEntity
  8
detail
 62
    16
  6
CONTINUOUS
370
     5
100
AcDbCircle
 10
18.3225586
 20
-55.88852267
 30
0.0
 40
6.0663000022837E-05
100
AcDbArc
 50
179.11150101
 51
8.29782692
  0
ARC
  5
5C4
100
AcDbEntity
  8
detail
 62
    16
  6
CONTINUOUS
370
     5
100
AcDbCircle
 10
18.38722549
 20
-55.87005978
 30
0.0
 40
0.07110541
100
AcDbArc
 50
185.86280002
 51
195.70969702
  0
ARC
  5
5C5
100
AcDbEntity
  8
detail
 62
    16
  6
CONTINUOUS
370
     5
100
AcDbCircle
 10
18.38722549
 20
-55.87005978
 30
0.0
 40
0.07137502
100
AcDbArc
 50
176.187196
 51
185.06030502
  0
ARC
  5
5C6
100
AcDbEntity
  8
detail
 62
    16
  6
CONTINUOUS
370
     5
100
AcDbCircle
 10
18.38722549
 20
-55.87005978
 30
0.0
 40
0.07137502
100
AcDbArc
 50
185.81781302
 51
195.70969702
  0
ARC
  5
5C7
100
AcDbEntity
  8
detail
 62
    16
  6
CONTINUOUS
370
     5
100
AcDbCircle
 10
18.32119662
 20
-55.85298249
 30
0.0
 40
0.00060663
100
AcDbArc
 50
329.61035302
 51
66.28708501
  0
ARC
  5
5C8
100
AcDbEntity
  8
detail
 62
    16
  6
CONTINUOUS
370
     5
100
AcDbCircle
 10
18.32122547
 20
-55.85299576
 30
0.0
 40
0.00033701
100
AcDbArc
 50
1.20309698
 51
66.787993
  0
ARC
  5
5C9
100
AcDbEntity
  8
detail
 62
    16
  6
CONTINUOUS
370
     5
100
AcDbCircle
 10
18.38722549
 20
-55.87005978
 30
0.0
 40
0.07137502
100
AcDbArc
 50
166.632902
 51
175.429689
  0
ARC
  5
5CA
100
AcDbEntity
  8
detail
 62
    16
  6
CONTINUOUS
370
     5
100
AcDbCircle
 10
18.38722549
 20
-55.87005978
 30
0.0
 40
0.07110541
100
AcDbArc
 50
166.632902
 51
175.384715
  0
ARC
  5
5CB
100
AcDbEntity
  8
detail
 62
    16
  6
CONTINUOUS
370
     5
100
AcDbCircle
 10
18.38722549
 20
-55.87005978
 30
0.0
 40
0.07110541
100
AcDbArc
 50
176.232189
 51
185.01532502
  0
ARC
  5
5CC
100
AcDbEntity
  8
detail
 62
    16
  6
CONTINUOUS
370
     5
100
AcDbCircle
 10
18.35057702
 20
-55.86653433
 30
0.0
 40
0.0320208
100
AcDbArc
 50
154.974186
 51
211.95055102
  0
ARC
  5
5CD
100
AcDbEntity
  8
detail
 62
    16
  6
CONTINUOUS
370
     5
100
AcDbCircle
 10
18.35057702
 20
-55.86653433
 30
0.0
 40
0.03175157
100
AcDbArc
 50
155.345613
 51
211.97619202
  0
ARC
  5
5CE
100
AcDbEntity
  8
detail
 62
    16
  6
CONTINUOUS
370
     5
100
AcDbCircle
 10
18.31884104
 20
-55.88929427
 30
0.0
 40
0.00033702
100
AcDbArc
 50
195.70969701
 51
358.98758503
  0
ARC
  5
5CF
100
AcDbEntity
  8
detail
 62
    16
  6
CONTINUOUS
370
     5
100
AcDbCircle
 10
18.32122453
 20
-55.88412045
 30
0.0
 40
0.0022243
100
AcDbArc
 50
357.45217302
 51
178.98758
  0
ARC
  5
5D0
100
AcDbEntity
  8
detail
 62
    16
  6
CONTINUOUS
370
     5
100
AcDbCircle
 10
18.31884104
 20
-55.88929427
 30
0.0
 40
6.7402999995620E-05
100
AcDbArc
 50
195.70969697
 51
358.98758511
  0
ARC
  5
5D1
100
AcDbEntity
  8
detail
 62
    16
  6
CONTINUOUS
370
     5
100
AcDbCircle
 10
18.32122453
 20
-55.88412045
 30
0.0
 40
0.00195469
100
AcDbArc
 50
357.45217302
 51
178.98758
  0
ARC
  5
5D2
100
AcDbEntity
  8
detail
 62
    16
  6
CONTINUOUS
370
     5
100
AcDbCircle
 10
18.32222735
 20
-55.88413143
 30
0.0
 40
0.00134806
100
AcDbArc
 50
355.91910902
 51
28.929465
  0
ARC
  5
5D3
100
AcDbEntity
  8
detail
 62
    16
  6
CONTINUOUS
370
     5
100
AcDbCircle
 10
18.32222735
 20
-55.88413143
 30
0.0
 40
0.00161767
100
AcDbArc
 50
355.91910901
 51
28.92946501
  0
ARC
  5
5D4
100
AcDbEntity
  8
detail
 62
    16
  6
CONTINUOUS
370
     5
100
AcDbCircle
 10
18.32089812
 20
-55.84792388
 30
0.0
 40
0.00175248
100
AcDbArc
 50
6.91623
 51
177.920678
  0
ARC
  5
5D5
100
AcDbEntity
  8
detail
 62
    16
  6
CONTINUOUS
370
     5
100
AcDbCircle
 10
18.32089812
 20
-55.84792388
 30
0.0
 40
0.00148287
100
AcDbArc
 50
8.297827
 51
177.920678
  0
ARC
  5
5D6
100
AcDbEntity
  8
detail
 62
    16
  6
CONTINUOUS
370
     5
100
AcDbCircle
 10
18.32089812
 20
-55.84792388
 30
0.0
 40
0.00121325
100
AcDbArc
 50
357.82107101
 51
182.17665402
  0
ARC
  5
5D7
100
AcDbEntity
  8
detail
 62
    16
  6
CONTINUOUS
370
     5
100
AcDbCircle
 10
18.32242054
 20
-55.84850789
 30
0.0
 40
0.00033027
100
AcDbArc
 50
177.82105902
 51
8.12421699
  0
ARC
  5
5D8
100
AcDbEntity
  8
detail
 62
    16
  6
CONTINUOUS
370
     5
100
AcDbCircle
 10
18.32242054
 20
-55.84850789
 30
0.0
 40
6.0663000024218E-05
100
AcDbArc
 50
179.11150115
 51
8.29782692
  0
ARC
  5
5D9
100
AcDbEntity
  8
detail
 62
    16
  6
CONTINUOUS
370
     5
100
AcDbCircle
 10
18.32016379
 20
-55.85167414
 30
0.0
 40
0.00060663
100
AcDbArc
 50
182.17665403
 51
252.42508101
  0
ARC
  5
5DA
100
AcDbEntity
  8
detail
 62
    16
  6
CONTINUOUS
370
     5
100
AcDbCircle
 10
18.32016379
 20
-55.85167414
 30
0.0
 40
0.00033701
100
AcDbArc
 50
182.17665401
 51
252.42508103
  0
ARC
  5
5DB
100
AcDbEntity
  8
detail
 62
    16
  6
CONTINUOUS
370
     5
100
AcDbCircle
 10
18.31864387
 20
-55.85242387
 30
0.0
 40
0.00033701
100
AcDbArc
 50
301.66865801
 51
357.92068904
  0
ARC
  5
5DC
100
AcDbEntity
  8
detail
 62
    16
  6
CONTINUOUS
370
     5
100
AcDbCircle
 10
18.3183743
 20
-55.85369889
 30
0.0
 40
0.00033701
100
AcDbArc
 50
121.66864697
 51
166.63290206
  0
ARC
  5
5DD
100
AcDbEntity
  8
detail
 62
    16
  6
CONTINUOUS
370
     5
100
AcDbCircle
 10
18.31864387
 20
-55.85242387
 30
0.0
 40
0.00060663
100
AcDbArc
 50
301.668658
 51
357.92068902
  0
ARC
  5
5DE
100
AcDbEntity
  8
detail
 62
    16
  6
CONTINUOUS
370
     5
100
AcDbCircle
 10
18.3183743
 20
-55.85369889
 30
0.0
 40
0.00060663
100
AcDbArc
 50
121.66864696
 51
166.63290204
  0
ARC
  5
5DF
100
AcDbEntity
  8
detail
 62
    16
  6
CONTINUOUS
370
     5
100
AcDbCircle
 10
18.32055887
 20
-55.88907766
 30
0.0
 40
0.00040442
100
AcDbArc
 50
56.513085
 51
252.52613502
  0
ARC
  5
5E0
100
AcDbEntity
  8
detail
 62
    16
  6
CONTINUOUS
370
     5
100
AcDbCircle
 10
18.32058363
 20
-55.88906915
 30
0.0
 40
0.00013481
100
AcDbArc
 50
72.52611996
 51
252.52613506
  0
ARC
  5
5E1
100
AcDbEntity
  8
detail
 62
    16
  6
CONTINUOUS
370
     5
100
AcDbCircle
 10
18.32177859
 20
-55.88790449
 30
0.0
 40
0.00145228
100
AcDbArc
 50
250.15309602
 51
4.535121
  0
ARC
  5
5E2
100
AcDbEntity
  8
detail
 62
    16
  6
CONTINUOUS
370
     5
100
AcDbCircle
 10
18.32177859
 20
-55.88790449
 30
0.0
 40
0.00173797
100
AcDbArc
 50
247.88434502
 51
4.535121
  0
ARC
  5
5E3
100
AcDbEntity
  8
detail
 62
    16
  6
CONTINUOUS
370
     5
100
AcDbCircle
 10
18.32177859
 20
-55.88790449
 30
0.0
 40
0.0020236
100
AcDbArc
 50
246.24700101
 51
4.535121
  0
CIRCLE
  5
5E4
100
AcDbEntity
  8
detail
 62
    16
  6
CONTINUOUS
370
     5
100
AcDbCircle
 10
18.42763431
 20
-55.77791053
 30
0.0
 40
0.002
  0
CIRCLE
  5
5E5
100
AcDbEntity
  8
detail
 62
    16
  6
CONTINUOUS
370
     5
100
AcDbCircle
 10
18.42763431
 20
-55.77791053
 30
0.0
 40
0.0025
  0
CIRCLE
  5
5E6
100
AcDbEntity
  8
detail
 62
    16
  6
CONTINUOUS
370
     5
100
AcDbCircle
 10
18.42763431
 20
-55.77791053
 30
0.0
 40
0.002
  0
CIRCLE
  5
5E7
100
AcDbEntity
  8
detail
 62
    16
  6
CONTINUOUS
370
     5
100
AcDbCircle
 10
18.42763431
 20
-55.77791053
 30
0.0
 40
0.0025
  0
CIRCLE
  5
5E8
100
AcDbEntity
  8
detail
 62
    16
  6
CONTINUOUS
370
     5
100
AcDbCircle
 10
18.42763431
 20
-55.77791053
 30
0.0
 40
0.002
  0
CIRCLE
  5
5E9
100
AcDbEntity
  8
detail
 62
    16
  6
CONTINUOUS
370
     5
100
AcDbCircle
 10
18.42763431
 20
-55.77791053
 30
0.0
 40
0.0025
  0
CIRCLE
  5
5EA
100
AcDbEntity
  8
detail
 62
    16
  6
CONTINUOUS
370
     5
100
AcDbCircle
 10
18.42763431
 20
-55.77791053
 30
0.0
 40
0.002
  0
CIRCLE
  5
5EB
100
AcDbEntity
  8
detail
 62
    16
  6
CONTINUOUS
370
     5
100
AcDbCircle
 10
18.42763431
 20
-55.77791053
 30
0.0
 40
0.0025
  0
CIRCLE
  5
5EC
100
AcDbEntity
  8
detail
 62
    16
  6
CENTER
370
     5
100
AcDbCircle
 10
18.39371951
 20
-55.73276019
 30
0.0
 40
0.06165225
  0
CIRCLE
  5
5ED
100
AcDbEntity
  8
detail
 62
    16
  6
CONTINUOUS
370
     5
100
AcDbCircle
 10
18.3934988
 20
-55.76019445
 30
0.0
 40
0.00195959
  0
CIRCLE
  5
5EE
100
AcDbEntity
  8
detail
 62
    16
  6
CONTINUOUS
370
     5
100
AcDbCircle
 10
18.3934988
 20
-55.76019445
 30
0.0
 40
0.00244949
  0
CIRCLE
  5
5EF
100
AcDbEntity
  8
detail
 62
    16
  6
CONTINUOUS
370
     5
100
AcDbCircle
 10
18.3934988
 20
-55.73276019
 30
0.0
 40
0.00783836
  0
CIRCLE
  5
5F0
100
AcDbEntity
  8
detail
 62
    16
  6
CONTINUOUS
370
     5
100
AcDbCircle
 10
18.3934988
 20
-55.73276019
 30
0.0
 40
0.00881816
  0
CIRCLE
  5
5F1
100
AcDbEntity
  8
detail
 62
    16
  6
CONTINUOUS
370
     5
100
AcDbCircle
 10
18.3934988
 20
-55.73276019
 30
0.0
 40
0.0129333
  0
CIRCLE
  5
5F2
100
AcDbEntity
  8
detail
 62
    16
  6
CONTINUOUS
370
     5
100
AcDbCircle
 10
18.3934988
 20
-55.76019445
 30
0.0
 40
0.00195959
  0
CIRCLE
  5
5F3
100
AcDbEntity
  8
detail
 62
    16
  6
CONTINUOUS
370
     5
100
AcDbCircle
 10
18.3934988
 20
-55.76019445
 30
0.0
 40
0.00244949
  0
CIRCLE
  5
5F4
100
AcDbEntity
  8
detail
 62
    16
  6
CONTINUOUS
370
     5
100
AcDbCircle
 10
18.3934988
 20
-55.73276019
 30
0.0
 40
0.00783836
  0
CIRCLE
  5
5F5
100
AcDbEntity
  8
detail
 62
    16
  6
CONTINUOUS
370
     5
100
AcDbCircle
 10
18.3934988
 20
-55.73276019
 30
0.0
 40
0.00881816
  0
CIRCLE
  5
5F6
100
AcDbEntity
  8
detail
 62
    16
  6
CONTINUOUS
370
     5
100
AcDbCircle
 10
18.3934988
 20
-55.73276019
 30
0.0
 40
0.0129333
  0
CIRCLE
  5
5F7
100
AcDbEntity
  8
detail
 62
    16
  6
CONTINUOUS
370
     5
100
AcDbCircle
 10
18.3934988
 20
-55.76019445
 30
0.0
 40
0.00195959
  0
CIRCLE
  5
5F8
100
AcDbEntity
  8
detail
 62
    16
  6
CONTINUOUS
370
     5
100
AcDbCircle
 10
18.3934988
 20
-55.76019445
 30
0.0
 40
0.00244949
  0
CIRCLE
  5
5F9
100
AcDbEntity
  8
detail
 62
    16
  6
CONTINUOUS
370
     5
100
AcDbCircle
 10
18.3934988
 20
-55.73276019
 30
0.0
 40
0.00783836
  0
CIRCLE
  5
5FA
100
AcDbEntity
  8
detail
 62
    16
  6
CONTINUOUS
370
     5
100
AcDbCircle
 10
18.3934988
 20
-55.73276019
 30
0.0
 40
0.00881816
  0
CIRCLE
  5
5FB
100
AcDbEntity
  8
detail
 62
    16
  6
CONTINUOUS
370
     5
100
AcDbCircle
 10
18.3934988
 20
-55.73276019
 30
0.0
 40
0.0129333
  0
CIRCLE
  5
5FC
100
AcDbEntity
  8
detail
 62
    16
  6
CONTINUOUS
370
     5
100
AcDbCircle
 10
18.3934988
 20
-55.76019445
 30
0.0
 40
0.00195959
  0
CIRCLE
  5
5FD
100
AcDbEntity
  8
detail
 62
    16
  6
CONTINUOUS
370
     5
100
AcDbCircle
 10
18.3934988
 20
-55.76019445
 30
0.0
 40
0.00244949
  0
CIRCLE
  5
5FE
100
AcDbEntity
  8
detail
 62
    16
  6
CONTINUOUS
370
     5
100
AcDbCircle
 10
18.3934988
 20
-55.73276019
 30
0.0
 40
0.00783836
  0
CIRCLE
  5
5FF
100
AcDbEntity
  8
detail
 62
    16
  6
CONTINUOUS
370
     5
100
AcDbCircle
 10
18.3934988
 20
-55.73276019
 30
0.0
 40
0.00881816
  0
CIRCLE
  5
600
100
AcDbEntity
  8
detail
 62
    16
  6
CONTINUOUS
370
     5
100
AcDbCircle
 10
18.3934988
 20
-55.73276019
 30
0.0
 40
0.0129333
  0
CIRCLE
  5
601
100
AcDbEntity
  8
detail
 62
    16
  6
CONTINUOUS
370
     5
100
AcDbCircle
 10
18.3484791
 20
-55.77782886
 30
0.0
 40
0.002
  0
CIRCLE
  5
602
100
AcDbEntity
  8
detail
 62
    16
  6
CONTINUOUS
370
     5
100
AcDbCircle
 10
18.3484791
 20
-55.77782886
 30
0.0
 40
0.0025
  0
CIRCLE
  5
603
100
AcDbEntity
  8
detail
 62
    16
  6
CONTINUOUS
370
     5
100
AcDbCircle
 10
18.3484791
 20
-55.77782886
 30
0.0
 40
0.002
  0
CIRCLE
  5
604
100
AcDbEntity
  8
detail
 62
    16
  6
CONTINUOUS
370
     5
100
AcDbCircle
 10
18.3484791
 20
-55.82434899
 30
0.0
 40
0.00696671
  0
CIRCLE
  5
605
100
AcDbEntity
  8
detail
 62
    16
  6
CONTINUOUS
370
     5
100
AcDbCircle
 10
18.39763431
 20
-55.80777943
 30
0.0
 40
0.0025
  0
CIRCLE
  5
606
100
AcDbEntity
  8
detail
 62
    16
  6
CONTINUOUS
370
     5
100
AcDbCircle
 10
18.39763431
 20
-55.79791053
 30
0.0
 40
0.0025
  0
CIRCLE
  5
607
100
AcDbEntity
  8
detail
 62
    16
  6
CONTINUOUS
370
     5
100
AcDbCircle
 10
18.39763431
 20
-55.78791053
 30
0.0
 40
0.0025
  0
CIRCLE
  5
608
100
AcDbEntity
  8
detail
 62
    16
  6
CONTINUOUS
370
     5
100
AcDbCircle
 10
18.42763431
 20
-55.80777943
 30
0.0
 40
0.0025
  0
CIRCLE
  5
609
100
AcDbEntity
  8
detail
 62
    16
  6
CONTINUOUS
370
     5
100
AcDbCircle
 10
18.42763431
 20
-55.79777943
 30
0.0
 40
0.0025
  0
CIRCLE
  5
60A
100
AcDbEntity
  8
detail
 62
    16
  6
CONTINUOUS
370
     5
100
AcDbCircle
 10
18.42763431
 20
-55.78777943
 30
0.0
 40
0.0025
  0
CIRCLE
  5
60B
100
AcDbEntity
  8
detail
 62
    16
  6
CONTINUOUS
370
     5
100
AcDbCircle
 10
18.39763431
 20
-55.77791053
 30
0.0
 40
0.002
  0
CIRCLE
  5
60C
100
AcDbEntity
  8
detail
 62
    16
  6
CONTINUOUS
370
     5
100
AcDbCircle
 10
18.39763431
 20
-55.77791053
 30
0.0
 40
0.0025
  0
CIRCLE
  5
60D
100
AcDbEntity
  8
detail
 62
    16
  6
CONTINUOUS
370
     5
100
AcDbCircle
 10
18.39763431
 20
-55.77791053
 30
0.0
 40
0.002
  0
CIRCLE
  5
60E
100
AcDbEntity
  8
detail
 62
    16
  6
CONTINUOUS
370
     5
100
AcDbCircle
 10
18.39763431
 20
-55.77791053
 30
0.0
 40
0.0025
  0
CIRCLE
  5
60F
100
AcDbEntity
  8
detail
 62
    16
  6
CONTINUOUS
370
     5
100
AcDbCircle
 10
18.39763431
 20
-55.77791053
 30
0.0
 40
0.002
  0
CIRCLE
  5
610
100
AcDbEntity
  8
detail
 62
    16
  6
CONTINUOUS
370
     5
100
AcDbCircle
 10
18.39763431
 20
-55.77791053
 30
0.0
 40
0.0025
  0
CIRCLE
  5
611
100
AcDbEntity
  8
detail
 62
    16
  6
CONTINUOUS
370
     5
100
AcDbCircle
 10
18.39763431
 20
-55.77791053
 30
0.0
 40
0.002
  0
CIRCLE
  5
612
100
AcDbEntity
  8
detail
 62
    16
  6
CONTINUOUS
370
     5
100
AcDbCircle
 10
18.39763431
 20
-55.77791053
 30
0.0
 40
0.0025
  0
HATCH
  5
613
100
AcDbEntity
  8
detail
 62
    16
100
AcDbHatch
 10
0.0
 20
0.0
 30
0.0
210
0.0
220
0.0
230
1.0
  2
DOPPELLINIE_1_4
 70
     0
 71
     0
 91
        1
 92
        7
 72
     0
 73
     1
 93
        8
 10
18.38827202
 20
-55.83864665
 10
18.38239325
 20
-55.84452542
 10
18.38827202
 20
-55.84452542
 10
18.38827202
 20
-55.85628297
 10
18.38927202
 20
-55.85628297
 10
18.38927202
 20
-55.84352542
 10
18.38466285
 20
-55.84352542
 10
18.38463941
 20
-55.84354887
 97
        0
 75
     0
 76
     2
 52
0.0
 41
1.0
 77
     0
 78
     2
 53
45.0
 43
0.0
 44
0.0
 45
-0.00114905
 46
0.00114905
 79
     2
 49
0.025
 49
-2.4999999368447E-07
 53
45.0
 43
0.0
 44
0.000325
 45
-0.00114905
 46
0.00114905
 79
     2
 49
0.025
 49
-2.4999999368447E-07
 47
0.775229
 98
        1
 10
0.0
 20
0.0
  0
HATCH
  5
614
100
AcDbEntity
  8
detail
 62
    16
100
AcDbHatch
 10
0.0
 20
0.0
 30
0.0
210
0.0
220
0.0
230
1.0
  2
DOPPELLINIE_1_4
 70
     0
 71
     0
 91
        1
 92
        7
 72
     0
 73
     1
 93
        8
 10
18.36398912
 20
-55.7449835
 10
18.3653779
 20
-55.74440825
 10
18.38185074
 20
-55.76088109
 10
18.40514686
 20
-55.76088109
 10
18.4216197
 20
-55.74440825
 10
18.42300848
 20
-55.7449835
 10
18.40572211
 20
-55.76226987
 10
18.38127549
 20
-55.76226987
 97
        0
 75
     0
 76
     2
 52
0.0
 41
1.0
 77
     0
 78
     2
 53
45.0
 43
0.0
 44
0.0
 45
-0.00114905
 46
0.00114905
 79
     2
 49
0.025
 49
-2.4999999368447E-07
 53
45.0
 43
0.0
 44
0.000325
 45
-0.00114905
 46
0.00114905
 79
     2
 49
0.025
 49
-2.4999999368447E-07
 47
0.775229
 98
        1
 10
0.0
 20
0.0
  0
HATCH
  5
615
100
AcDbEntity
  8
detail
 62
    16
100
AcDbHatch
 10
0.0
 20
0.0
 30
0.0
210
0.0
220
0.0
230
1.0
  2
DOPPELLINIE_1_4
 70
     0
 71
     0
 91
        1
 92
        7
 72
     0
 73
     1
 93
       12
 10
18.36398912
 20
-55.7449835
 10
18.3653779
 20
-55.74440825
 10
18.3653779
 20
-55.72111213
 10
18.38185074
 20
-55.70463928
 10
18.40514686
 20
-55.70463928
 10
18.4216197
 20
-55.72111213
 10
18.4216197
 20
-55.74440825
 10
18.42300848
 20
-55.7449835
 10
18.42300848
 20
-55.72053688
 10
18.40572211
 20
-55.70325051
 10
18.38127549
 20
-55.70325051
 10
18.36398912
 20
-55.72053688
 97
        0
 75
     0
 76
     2
 52
0.0
 41
1.0
 77
     0
 78
     2
 53
45.0
 43
0.0
 44
0.0
 45
-0.00114905
 46
0.00114905
 79
     2
 49
0.025
 49
-2.4999999368447E-07
 53
45.0
 43
0.0
 44
0.000325
 45
-0.00114905
 46
0.00114905
 79
     2
 49
0.025
 49
-2.4999999368447E-07
 47
0.775229
 98
        1
 10
0.0
 20
0.0
  0
HATCH
  5
616
100
AcDbEntity
  8
detail
 62
    16
100
AcDbHatch
 10
0.0
 20
0.0
 30
0.0
210
0.0
220
0.0
230
1.0
  2
DOPPELLINIE_1_4
 70
     0
 71
     0
 91
        1
 92
        7
 72
     0
 73
     1
 93
        6
 10
18.36763431
 20
-55.85778297
 10
18.36763431
 20
-55.85731656
 10
18.36823105
 20
-55.85628297
 10
18.45703757
 20
-55.85628297
 10
18.45763431
 20
-55.85731656
 10
18.45763431
 20
-55.85778297
 97
        0
 75
     0
 76
     2
 52
0.0
 41
1.0
 77
     0
 78
     2
 53
45.0
 43
0.0
 44
0.0
 45
-0.00114905
 46
0.00114905
 79
     2
 49
0.025
 49
-2.4999999368447E-07
 53
45.0
 43
0.0
 44
0.000325
 45
-0.00114905
 46
0.00114905
 79
     2
 49
0.025
 49
-2.4999999368447E-07
 47
0.775229
 98
        1
 10
0.0
 20
0.0
  0
HATCH
  5
617
100
AcDbEntity
  8
detail
 62
    16
100
AcDbHatch
 10
0.0
 20
0.0
 30
0.0
210
0.0
220
0.0
230
1.0
  2
DOPPELLINIE_1_4
 70
     0
 71
     0
 91
        1
 92
        7
 72
     0
 73
     1
 93
        8
 10
18.44089914
 20
-55.84354887
 10
18.44087569
 20
-55.84352542
 10
18.43626652
 20
-55.84352542
 10
18.43626652
 20
-55.85628297
 10
18.43726621
 20
-55.85628297
 10
18.43726621
 20
-55.84452542
 10
18.44314498
 20
-55.84452542
 10
18.43726621
 20
-55.83864665
 97
        0
 75
     0
 76
     2
 52
0.0
 41
1.0
 77
     0
 78
     2
 53
45.0
 43
0.0
 44
0.0
 45
-0.00114905
 46
0.00114905
 79
     2
 49
0.025
 49
-2.4999999368447E-07
 53
45.0
 43
0.0
 44
0.000325
 45
-0.00114905
 46
0.00114905
 79
     2
 49
0.025
 49
-2.4999999368447E-07
 47
0.775229
 98
        1
 10
0.0
 20
0.0
  0
HATCH
  5
618
100
AcDbEntity
  8
detail
 62
    16
100
AcDbHatch
 10
0.0
 20
0.0
 30
0.0
210
0.0
220
0.0
230
1.0
  2
DOPPELLINIE_1_4
 70
     0
 71
     0
 91
        1
 92
        7
 72
     0
 73
     1
 93
        4
 10
18.38859982
 20
-55.72786121
 10
18.39839778
 20
-55.72786121
 10
18.39839778
 20
-55.73765916
 10
18.38859982
 20
-55.73765916
 97
        0
 75
     0
 76
     2
 52
0.0
 41
1.0
 77
     0
 78
     2
 53
45.0
 43
0.0
 44
0.0
 45
-0.00114905
 46
0.00114905
 79
     2
 49
0.025
 49
-2.4999999368447E-07
 53
45.0
 43
0.0
 44
0.000325
 45
-0.00114905
 46
0.00114905
 79
     2
 49
0.025
 49
-2.4999999368447E-07
 47
0.775229
 98
        1
 10
0.0
 20
0.0
  0
LWPOLYLINE
  5
619
100
AcDbEntity
  8
detail
 62
    16
  6
CONTINUOUS
370
     5
100
AcDbPolyline
 90
       17
 70
     0
 43
0.0
 10
18.32576521
 20
-55.68838221
 10
18.3257453
 20
-55.68841972
 10
18.3256868
 20
-55.68852369
 10
18.32559159
 20
-55.68868127
 10
18.32546151
 20
-55.68887962
 10
18.32529844
 20
-55.68910588
 10
18.32510422
 20
-55.6893472
 10
18.32488073
 20
-55.68959074
 10
18.32462983
 20
-55.68982365
 10
18.32449364
 20
-55.68993348
 10
18.32435766
 20
-55.69003437
 10
18.32422742
 20
-55.69012457
 10
18.32410845
 20
-55.6902023
 10
18.32400628
 20
-55.69026582
 10
18.32392645
 20
-55.69031336
 10
18.32387449
 20
-55.69034318
 10
18.32385595
 20
-55.69035351
  0
LWPOLYLINE
  5
61A
100
AcDbEntity
  8
detail
 62
    16
  6
CONTINUOUS
370
     5
100
AcDbPolyline
 90
       17
 70
     0
 43
0.0
 10
18.32649257
 20
-55.68861359
 10
18.32647066
 20
-55.68864784
 10
18.32640753
 20
-55.68874358
 10
18.32630704
 20
-55.68889026
 10
18.32617306
 20
-55.68907738
 10
18.32600946
 20
-55.6892944
 10
18.32582011
 20
-55.68953078
 10
18.32560888
 20
-55.68977601
 10
18.32537963
 20
-55.69001955
 10
18.325147
 20
-55.69024307
 10
18.3249129
 20
-55.69044959
 10
18.32468734
 20
-55.69063517
 10
18.32448033
 20
-55.69079586
 10
18.32430189
 20
-55.69092772
 10
18.32416204
 20
-55.69102679
 10
18.32407078
 20
-55.69108913
 10
18.32403813
 20
-55.69111078
  0
LWPOLYLINE
  5
61B
100
AcDbEntity
  8
detail
 62
    16
  6
CONTINUOUS
370
     5
100
AcDbPolyline
 90
       70
 70
     0
 43
0.0
 10
18.33582316
 20
-55.67953975
 10
18.33616638
 20
-55.67942464
 10
18.337139
 20
-55.67911417
 10
18.33865548
 20
-55.67866061
 10
18.33959094
 20
-55.6783965
 10
18.34063027
 20
-55.67811622
 10
18.3417628
 20
-55.6778263
 10
18.34297782
 20
-55.67753327
 10
18.34426464
 20
-55.67724367
 10
18.34561257
 20
-55.67696403
 10
18.34701091
 20
-55.67670089
 10
18.34844897
 20
-55.67646078
 10
18.34991607
 20
-55.67625023
 10
18.35065715
 20
-55.67615808
 10
18.35140149
 20
-55.67607577
 10
18.35260318
 20
-55.67596674
 10
18.35380558
 20
-55.675888
 10
18.35500822
 20
-55.67583939
 10
18.35621059
 20
-55.67582073
 10
18.35741221
 20
-55.67583183
 10
18.35861259
 20
-55.67587252
 10
18.35981123
 20
-55.67594262
 10
18.36100764
 20
-55.67604196
 10
18.36220134
 20
-55.67617035
 10
18.36339183
 20
-55.67632762
 10
18.36457862
 20
-55.67651358
 10
18.36576122
 20
-55.67672806
 10
18.36693913
 20
-55.67697088
 10
18.36811188
 20
-55.67724187
 10
18.36927896
 20
-55.67754084
 10
18.37043988
 20
-55.67786762
 10
18.371418
 20
-55.67816636
 10
18.37238564
 20
-55.67848347
 10
18.37334265
 20
-55.6788182
 10
18.37428885
 20
-55.67916981
 10
18.3752241
 20
-55.67953757
 10
18.37614824
 20
-55.67992074
 10
18.37706111
 20
-55.68031858
 10
18.37796256
 20
-55.68073035
 10
18.37885242
 20
-55.68115532
 10
18.37973053
 20
-55.68159275
 10
18.38059675
 20
-55.68204189
 10
18.38145092
 20
-55.68250201
 10
18.38229286
 20
-55.68297238
 10
18.38312244
 20
-55.68345224
 10
18.38393949
 20
-55.68394088
 10
18.38474385
 20
-55.68443754
 10
18.38553537
 20
-55.68494149
 10
18.38631388
 20
-55.685452
 10
18.38707924
 20
-55.68596831
 10
18.38783128
 20
-55.68648971
 10
18.38856984
 20
-55.68701544
 10
18.38929478
 20
-55.68754476
 10
18.39000592
 20
-55.68807695
 10
18.39070312
 20
-55.68861126
 10
18.39205504
 20
-55.6896833
 10
18.39334929
 20
-55.69075497
 10
18.3945846
 20
-55.69182037
 10
18.39575972
 20
-55.69287359
 10
18.39687338
 20
-55.69390873
 10
18.39792432
 20
-55.69491989
 10
18.39891128
 20
-55.69590115
 10
18.39983301
 20
-55.69684661
 10
18.40068824
 20
-55.69775037
 10
18.40147571
 20
-55.69860652
 10
18.40219417
 20
-55.69940916
 10
18.40284234
 20
-55.70015238
 10
18.40392283
 20
-55.70143695
 10
18.40470708
 20
-55.70241299
 10
18.40534658
 20
-55.70325051
  0
LWPOLYLINE
  5
61C
100
AcDbEntity
  8
detail
 62
    16
  6
CONTINUOUS
370
     5
100
AcDbPolyline
 90
       86
 70
     0
 43
0.0
 10
18.33523715
 20
-55.67903772
 10
18.33561598
 20
-55.6788904
 10
18.33669031
 20
-55.67849617
 10
18.33745916
 20
-55.67822885
 10
18.33836692
 20
-55.67792666
 10
18.33940195
 20
-55.67759854
 10
18.34055259
 20
-55.67725345
 10
18.34180719
 20
-55.67690034
 10
18.3431541
 20
-55.67654816
 10
18.34458166
 20
-55.67620586
 10
18.34607822
 20
-55.67588239
 10
18.34684873
 20
-55.67573052
 10
18.34763212
 20
-55.67558671
 10
18.34842694
 20
-55.67545208
 10
18.34923172
 20
-55.67532776
 10
18.35004502
 20
-55.67521486
 10
18.35086537
 20
-55.6751145
 10
18.35169131
 20
-55.67502779
 10
18.3525214
 20
-55.67495587
 10
18.35325959
 20
-55.6749046
 10
18.35399784
 20
-55.67486468
 10
18.35473603
 20
-55.67483607
 10
18.35547406
 20
-55.67481873
 10
18.35621179
 20
-55.67481262
 10
18.35694911
 20
-55.67481771
 10
18.35768591
 20
-55.67483397
 10
18.35842206
 20
-55.67486135
 10
18.35915745
 20
-55.67489983
 10
18.35989197
 20
-55.67494936
 10
18.36062549
 20
-55.67500991
 10
18.3613579
 20
-55.67508145
 10
18.36208907
 20
-55.67516393
 10
18.3628189
 20
-55.67525733
 10
18.36354726
 20
-55.6753616
 10
18.36427404
 20
-55.67547671
 10
18.36499912
 20
-55.67560263
 10
18.36572239
 20
-55.67573931
 10
18.36644371
 20
-55.67588673
 10
18.36716299
 20
-55.67604485
 10
18.36788009
 20
-55.67621363
 10
18.36859491
 20
-55.67639303
 10
18.36930732
 20
-55.67658302
 10
18.37001721
 20
-55.67678357
 10
18.37072446
 20
-55.67699463
 10
18.37142896
 20
-55.67721617
 10
18.37213058
 20
-55.67744816
 10
18.37282921
 20
-55.67769056
 10
18.37352472
 20
-55.67794334
 10
18.37421701
 20
-55.67820645
 10
18.37490596
 20
-55.67847986
 10
18.37559145
 20
-55.67876354
 10
18.37648131
 20
-55.67914829
 10
18.3773618
 20
-55.67954643
 10
18.37823278
 20
-55.67995734
 10
18.37909409
 20
-55.6803804
 10
18.37994559
 20
-55.68081499
 10
18.38078712
 20
-55.68126049
 10
18.38161855
 20
-55.68171628
 10
18.38243972
 20
-55.68218172
 10
18.38325047
 20
-55.6826562
 10
18.38405067
 20
-55.6831391
 10
18.38484017
 20
-55.6836298
 10
18.38561881
 20
-55.68412766
 10
18.38638644
 20
-55.68463207
 10
18.38714293
 20
-55.68514241
 10
18.38788811
 20
-55.68565805
 10
18.38862185
 20
-55.68617837
 10
18.39005438
 20
-55.68723056
 10
18.39143933
 20
-55.688294
 10
18.39277551
 20
-55.68936371
 10
18.39406173
 20
-55.69043471
 10
18.3952968
 20
-55.69150202
 10
18.39647953
 20
-55.69256065
 10
18.39760874
 20
-55.69360563
 10
18.39868323
 20
-55.69463198
 10
18.39970181
 20
-55.69563471
 10
18.4006633
 20
-55.69660885
 10
18.40156651
 20
-55.69754941
 10
18.40241024
 20
-55.69845142
 10
18.4031933
 20
-55.69930989
 10
18.40391452
 20
-55.70011983
 10
18.40457269
 20
-55.70087628
 10
18.40516663
 20
-55.70157425
 10
18.40615706
 20
-55.70277483
 10
18.40687628
 20
-55.70368172
 10
18.40746308
 20
-55.70445504
  0
LWPOLYLINE
  5
61D
100
AcDbEntity
  8
detail
 62
    16
  6
CONTINUOUS
370
     5
100
AcDbPolyline
 90
       17
 70
     0
 43
0.0
 10
18.32064748
 20
-55.68734165
 10
18.32062922
 20
-55.68736486
 10
18.32058107
 20
-55.68742605
 10
18.32051299
 20
-55.68751256
 10
18.32043495
 20
-55.68761172
 10
18.32035692
 20
-55.68771089
 10
18.32028884
 20
-55.68779739
 10
18.32024069
 20
-55.68785858
 10
18.32022242
 20
-55.68788179
 10
18.32021197
 20
-55.68790498
 10
18.32018439
 20
-55.68796614
 10
18.32014541
 20
-55.68805259
 10
18.32010072
 20
-55.6881517
 10
18.32005602
 20
-55.68825081
 10
18.32001704
 20
-55.68833726
 10
18.31998947
 20
-55.68839841
 10
18.31997901
 20
-55.68842161
  0
LWPOLYLINE
  5
61E
100
AcDbEntity
  8
detail
 62
    16
  6
CONTINUOUS
370
     5
100
AcDbPolyline
 90
       19
 70
     0
 43
0.0
 10
18.32064748
 20
-55.68734165
 10
18.32072534
 20
-55.68724925
 10
18.32094948
 20
-55.68699316
 10
18.32130572
 20
-55.68660508
 10
18.32177987
 20
-55.68611669
 10
18.32235775
 20
-55.68555968
 10
18.3230252
 20
-55.68496574
 10
18.32338808
 20
-55.68466483
 10
18.32376803
 20
-55.68436656
 10
18.32416328
 20
-55.68407491
 10
18.32457206
 20
-55.68379383
 10
18.32469062
 20
-55.68371631
 10
18.32481011
 20
-55.68363999
 10
18.3249305
 20
-55.68356489
 10
18.32505174
 20
-55.68349103
 10
18.32517382
 20
-55.68341845
 10
18.32529668
 20
-55.68334718
 10
18.32542029
 20
-55.68327722
 10
18.32554463
 20
-55.68320863
  0
LWPOLYLINE
  5
61F
100
AcDbEntity
  8
detail
 62
    16
  6
CONTINUOUS
370
     5
100
AcDbPolyline
 90
       17
 70
     0
 43
0.0
 10
18.32484297
 20
-55.68460937
 10
18.32485999
 20
-55.68459764
 10
18.32490828
 20
-55.68456483
 10
18.32498373
 20
-55.68451454
 10
18.32508219
 20
-55.68445033
 10
18.32519952
 20
-55.68437581
 10
18.32533161
 20
-55.68429454
 10
18.3254743
 20
-55.68421011
 10
18.32562347
 20
-55.6841261
 10
18.32570507
 20
-55.68408218
 10
18.32578459
 20
-55.68404057
 10
18.3258593
 20
-55.68400235
 10
18.32592651
 20
-55.68396863
 10
18.32598349
 20
-55.6839405
 10
18.32602755
 20
-55.68391905
 10
18.32605598
 20
-55.68390537
 10
18.32606605
 20
-55.68390057
  0
LWPOLYLINE
  5
620
100
AcDbEntity
  8
detail
 62
    16
  6
CONTINUOUS
370
     5
100
AcDbPolyline
 90
       17
 70
     0
 43
0.0
 10
18.33223791
 20
-55.68059998
 10
18.3321715
 20
-55.68062693
 10
18.33199641
 20
-55.680698
 10
18.33174888
 20
-55.68079847
 10
18.33146512
 20
-55.68091365
 10
18.33118137
 20
-55.68102882
 10
18.33093383
 20
-55.6811293
 10
18.33075875
 20
-55.68120036
 10
18.33069234
 20
-55.68122732
 10
18.330607
 20
-55.6812349
 10
18.33038201
 20
-55.6812549
 10
18.33006392
 20
-55.68128317
 10
18.32969929
 20
-55.68131558
 10
18.32933465
 20
-55.68134798
 10
18.32901656
 20
-55.68137625
 10
18.32879158
 20
-55.68139625
 10
18.32870624
 20
-55.68140383
  0
LWPOLYLINE
  5
621
100
AcDbEntity
  8
detail
 62
    16
  6
CONTINUOUS
370
     5
100
AcDbPolyline
 90
       17
 70
     0
 43
0.0
 10
18.33208622
 20
-55.68174656
 10
18.33201878
 20
-55.68177083
 10
18.33184099
 20
-55.68183482
 10
18.33158962
 20
-55.68192528
 10
18.33130147
 20
-55.68202897
 10
18.33101332
 20
-55.68213267
 10
18.33076196
 20
-55.68222313
 10
18.33058416
 20
-55.68228711
 10
18.33051672
 20
-55.68231138
 10
18.33043115
 20
-55.68231554
 10
18.33020554
 20
-55.68232649
 10
18.32988657
 20
-55.68234198
 10
18.32952093
 20
-55.68235973
 10
18.32915529
 20
-55.68237748
 10
18.32883632
 20
-55.68239296
 10
18.32861071
 20
-55.68240391
 10
18.32852514
 20
-55.68240807
  0
LWPOLYLINE
  5
622
100
AcDbEntity
  8
detail
 62
    16
  6
CONTINUOUS
370
     5
100
AcDbPolyline
 90
       17
 70
     0
 43
0.0
 10
18.33223791
 20
-55.68059998
 10
18.33230769
 20
-55.68056598
 10
18.33249165
 20
-55.68047634
 10
18.33275174
 20
-55.6803496
 10
18.33304989
 20
-55.68020432
 10
18.33334804
 20
-55.68005904
 10
18.33360813
 20
-55.6799323
 10
18.3337921
 20
-55.67984266
 10
18.33386188
 20
-55.67980866
 10
18.33392097
 20
-55.67977553
 10
18.33407676
 20
-55.6796882
 10
18.33429702
 20
-55.67956473
 10
18.33454951
 20
-55.67942319
 10
18.334802
 20
-55.67928165
 10
18.33502226
 20
-55.67915818
 10
18.33517806
 20
-55.67907084
 10
18.33523715
 20
-55.67903772
  0
LWPOLYLINE
  5
623
100
AcDbEntity
  8
detail
 62
    16
  6
CONTINUOUS
370
     5
100
AcDbPolyline
 90
       25
 70
     0
 43
0.0
 10
18.33582316
 20
-55.67953975
 10
18.33574552
 20
-55.67959138
 10
18.33554082
 20
-55.67972749
 10
18.33525142
 20
-55.67991993
 10
18.33491968
 20
-55.68014053
 10
18.33458793
 20
-55.68036114
 10
18.33429853
 20
-55.68055358
 10
18.33409383
 20
-55.68068969
 10
18.33401619
 20
-55.68074132
 10
18.33398211
 20
-55.68075931
 10
18.33389227
 20
-55.68080674
 10
18.33376525
 20
-55.6808738
 10
18.33361964
 20
-55.68095066
 10
18.33347403
 20
-55.68102753
 10
18.33334701
 20
-55.68109458
 10
18.33325717
 20
-55.68114201
 10
18.33322309
 20
-55.68116
 10
18.33321806
 20
-55.68117522
 10
18.33320481
 20
-55.68121534
 10
18.33318607
 20
-55.68127205
 10
18.33316459
 20
-55.68133707
 10
18.33314311
 20
-55.68140209
 10
18.33312437
 20
-55.6814588
 10
18.33311112
 20
-55.68149892
 10
18.33310609
 20
-55.68151414
  0
LINE
  5
624
100
AcDbEntity
  8
detail
 62
    16
  6
CONTINUOUS
370
     5
100
AcDbLine
 10
18.39386567
 20
-55.69376191
 30
0.0
 11
18.4000429
 21
-55.68721655
 31
0.0
  0
LINE
  5
625
100
AcDbEntity
  8
detail
 62
    16
  6
CONTINUOUS
370
     5
100
AcDbLine
 10
18.55997911
 20
-55.16731656
 30
2.5
 11
19.43681402
 21
-55.16731656
 31
2.5
  0
LWPOLYLINE
  5
626
100
AcDbEntity
  8
detail
 62
    16
  6
CONTINUOUS
370
     5
100
AcDbPolyline
 90
        4
 70
     0
 43
0.0
 38
2.5
 10
19.43681402
 20
-55.17731656
 10
18.56997911
 20
-55.17731656
 10
18.56997911
 20
-55.24731656
 10
19.43681402
 20
-55.24731656
  0
LINE
  5
627
100
AcDbEntity
  8
detail
 62
    16
  6
CONTINUOUS
370
     5
100
AcDbLine
 10
18.2549791
 20
-55.8410516
 30
0.0
 11
18.2549791
 21
-54.98510473
 31
0.0
  0
LWPOLYLINE
  5
628
100
AcDbEntity
  8
detail
 62
    16
  6
CONTINUOUS
370
     5
100
AcDbPolyline
 90
        3
 70
     0
 43
0.0
 10
18.2279791
 20
-54.98510473
 10
18.2279791
 20
-55.8410516
 10
18.2549791
 20
-55.8410516
  0
LWPOLYLINE
  5
629
102
{ACAD_REACTORS
330
62A
102
}
100
AcDbEntity
  8
detail
 62
    16
  6
CONTINUOUS
370
     5
100
AcDbPolyline
 90
        4
 70
     1
 43
0.0
 10
18.1979791
 20
-55.8460516
 10
18.1979791
 20
-55.8660516
 10
18.2999791
 20
-55.8660516
 10
18.2999791
 20
-55.8460516
  0
HATCH
  5
62A
100
AcDbEntity
  8
detail
 62
    16
  6
CONTINUOUS
100
AcDbHatch
 10
0.0
 20
0.0
 30
0.0
210
0.0
220
0.0
230
1.0
  2
ANSI31
 70
     0
 71
     1
 91
        1
 92
        7
 72
     0
 73
     1
 93
        4
 10
18.1979791
 20
-55.8460516
 10
18.1979791
 20
-55.8660516
 10
18.2999791
 20
-55.8660516
 10
18.2999791
 20
-55.8460516
 97
        1
330
629
 75
     0
 76
     2
 52
-15.0
 41
0.00051041
 77
     0
 78
     1
 53
30.0
 43
0.0
 44
0.0
 45
0.00625
 46
-0.01082532
 79
     0
 47
0.775229
 98
        1
 10
0.0
 20
0.0
  0
LINE
  5
62B
100
AcDbEntity
  8
detail
 62
    16
  6
CONTINUOUS
370
     5
100
AcDbLine
 10
18.2999791
 20
-55.8460516
 30
0.0
 11
18.2999791
 21
-54.98361476
 31
0.0
  0
LWPOLYLINE
  5
62C
100
AcDbEntity
  8
detail
 62
    16
  6
CONTINUOUS
370
     5
100
AcDbPolyline
 90
        3
 70
     0
 43
0.0
 10
18.2799791
 20
-54.98510473
 10
18.2799791
 20
-55.8460516
 10
18.2999791
 20
-55.8460516
  0
LWPOLYLINE
  5
62D
100
AcDbEntity
  8
detail
 62
    16
  6
CONTINUOUS
370
     5
100
AcDbPolyline
 90
        4
 70
     1
 43
0.0
 10
18.2999791
 20
-55.54231656
 10
18.4799791
 20
-55.54231656
 10
18.4799791
 20
-55.60231656
 10
18.2999791
 20
-55.60231656
  0
LINE
  5
62E
100
AcDbEntity
  8
detail
 62
    16
  6
CONTINUOUS
370
     5
100
AcDbLine
 10
18.2999791
 20
-55.8460516
 30
0.0
 11
18.2999791
 21
-54.98361476
 31
0.0
  0
LWPOLYLINE
  5
62F
100
AcDbEntity
  8
detail
 62
    16
  6
CONTINUOUS
370
     5
100
AcDbPolyline
 90
        3
 70
     0
 43
0.0
 10
18.2799791
 20
-54.98510473
 10
18.2799791
 20
-55.8460516
 10
18.2999791
 20
-55.8460516
  0
LINE
  5
630
100
AcDbEntity
  8
detail
 62
     7
  6
CONTINUOUS
370
     5
100
AcDbLine
 10
19.43681402
 20
-55.29731656
 30
2.5
 11
18.4799791
 21
-55.29731656
 31
2.5
  0
LWPOLYLINE
  5
631
100
AcDbEntity
  8
detail
 62
     7
  6
CONTINUOUS
370
     5
100
AcDbPolyline
 90
        3
 70
     0
 43
0.0
 38
2.5
 10
18.4799791
 20
-55.29731656
 10
18.4799791
 20
-55.30231656
 10
18.4799791
 20
-55.47731656
  0
LINE
  5
632
100
AcDbEntity
  8
detail
 62
     7
  6
CONTINUOUS
370
     5
100
AcDbLine
 10
18.4799791
 20
-55.47731656
 30
2.5
 11
19.43681402
 21
-55.47731656
 31
2.5
  0
3DFACE
  5
633
100
AcDbEntity
  8
detail
 62
    16
  6
CONTINUOUS
370
     5
100
AcDbFace
 70
     2
 10
18.5439791
 20
-55.89731656
 30
2.5
 11
18.5439791
 21
-56.40612933
 31
2.5
 12
18.5489791
 22
-56.40612933
 32
2.5
 13
18.5489791
 23
-55.89731656
 33
2.5
  0
LWPOLYLINE
  5
634
100
AcDbEntity
  8
detail
 62
    16
  6
CONTINUOUS
370
     5
100
AcDbPolyline
 90
        5
 70
     0
 43
0.0
 38
2.5
 10
18.51807763
 20
-55.89731656
 10
18.52852837
 20
-55.89731656
 10
18.52852837
 20
-55.9054545
 10
18.51807763
 20
-55.9054545
 10
18.51807763
 20
-55.89731656
  0
3DFACE
  5
635
100
AcDbEntity
  8
detail
 62
    16
  6
CONTINUOUS
370
     5
100
AcDbFace
 70
     2
 10
18.52852837
 20
-55.89731656
 30
2.5
 11
18.52852837
 21
-56.40612933
 31
2.5
 12
18.53352837
 22
-56.40612933
 32
2.5
 13
18.53352837
 23
-55.89731656
 33
2.5
  0
LWPOLYLINE
  5
636
100
AcDbEntity
  8
detail
 62
    16
  6
CONTINUOUS
370
     5
100
AcDbPolyline
 90
        5
 70
     0
 43
0.0
 38
2.5
 10
18.53352837
 20
-55.89731656
 10
18.5439791
 20
-55.89731656
 10
18.5439791
 20
-55.9054545
 10
18.53352837
 20
-55.9054545
 10
18.53352837
 20
-55.89731656
  0
LWPOLYLINE
  5
637
100
AcDbEntity
  8
detail
 62
    16
  6
CONTINUOUS
370
     5
100
AcDbPolyline
 90
        5
 70
     0
 43
0.0
 38
2.5
 10
18.51307763
 20
-55.89331656
 10
18.5489791
 20
-55.89331656
 10
18.5489791
 20
-55.89731656
 10
18.51307763
 20
-55.89731656
 10
18.51307763
 20
-55.89331656
  0
LINE
  5
638
100
AcDbEntity
  8
detail
 62
    16
  6
CONTINUOUS
370
     5
100
AcDbLine
 10
18.5659791
 20
-55.90631656
 30
0.0
 11
18.5659791
 21
-56.40612933
 31
0.0
  0
LINE
  5
639
100
AcDbEntity
  8
detail
 62
    16
  6
CONTINUOUS
370
     5
100
AcDbLine
 10
18.4884791
 20
-55.90631656
 30
0.0
 11
18.4884791
 21
-56.40612933
 31
0.0
  0
LWPOLYLINE
  5
63A
100
AcDbEntity
  8
detail
 62
    16
  6
CONTINUOUS
370
     5
100
AcDbPolyline
 90
       10
 70
     1
 43
0.0
 10
18.5499791
 20
-55.47731656
 10
18.54997911
 20
-55.84731656
 10
18.50213045
 20
-55.84731656
 10
18.49982105
 20
-55.85131656
 10
18.49197911
 20
-55.85131656
 10
18.49197911
 20
-55.85181656
 10
18.49197911
 20
-55.87731656
 10
18.4904791
 20
-55.87731656
 10
18.47997911
 20
-55.87450309
 10
18.4799791
 20
-55.47731656
  0
LWPOLYLINE
  5
63B
100
AcDbEntity
  8
detail
 62
    16
  6
CONTINUOUS
370
     5
100
AcDbPolyline
 90
        5
 70
     1
 43
0.0
 10
18.5104791
 20
-55.85931656
 10
18.5104791
 20
-55.84731656
 10
18.5065767
 20
-55.84731656
 10
18.5065767
 20
-55.86438345
 10
18.5104791
 20
-55.86438345
  0
LWPOLYLINE
  5
63C
100
AcDbEntity
  8
detail
 62
    16
  6
CONTINUOUS
370
     5
100
AcDbPolyline
 90
       24
 70
     1
 43
0.0
 10
18.5104791
 20
-55.85931656
 10
18.5327791
 20
-55.85931656
 10
18.5327791
 20
-55.87151656
 10
18.5337791
 20
-55.87151656
 10
18.5491791
 20
-55.87151656
 10
18.5491791
 20
-55.85931656
 10
18.5529791
 20
-55.85931656
 10
18.5529791
 20
-55.83926125
 10
18.5669791
 20
-55.84073271
 10
18.5669791
 20
-55.89331656
 10
18.5659791
 20
-55.89331656
 10
18.5659791
 20
-55.90631656
 10
18.56463108
 20
-55.90678139
 10
18.5514791
 20
-55.91131656
 10
18.5514791
 20
-55.89331656
 10
18.50893777
 20
-55.89331656
 10
18.50893777
 20
-55.91131656
 10
18.5074791
 20
-55.91131656
 10
18.4884791
 20
-55.90622552
 10
18.4884791
 20
-55.88552233
 10
18.4929791
 20
-55.88431656
 10
18.4929791
 20
-55.87131656
 10
18.5104791
 20
-55.87131656
 10
18.5104791
 20
-55.85971656
  0
LWPOLYLINE
  5
63D
100
AcDbEntity
  8
detail
 62
    16
  6
CONTINUOUS
370
     5
100
AcDbPolyline
 90
        5
 70
     1
 43
0.0
 10
18.5529193
 20
-55.84579634
 10
18.54997911
 20
-55.84579634
 10
18.54997911
 20
-55.83926125
 10
18.5529791
 20
-55.83926125
 10
18.55292923
 20
-55.84584257
  0
3DFACE
  5
63E
100
AcDbEntity
  8
detail
 62
    16
  6
CONTINUOUS
370
     5
100
AcDbFace
 70
     2
 10
18.51307763
 20
-55.89731656
 30
2.5
 11
18.51307763
 21
-56.40612933
 31
2.5
 12
18.51807763
 22
-56.40612933
 32
2.5
 13
18.51807763
 23
-55.89731656
 33
2.5
  0
LINE
  5
63F
100
AcDbEntity
  8
detail
 62
    16
  6
CONTINUOUS
370
     5
100
AcDbLine
 10
18.4899791
 20
-55.47731656
 30
0.0
 11
18.4899791
 21
-54.98361476
 31
0.0
  0
LWPOLYLINE
  5
640
100
AcDbEntity
  8
detail
 62
    16
  6
CONTINUOUS
370
     5
100
AcDbPolyline
 90
        3
 70
     0
 43
0.0
 10
18.4799791
 20
-54.98361476
 10
18.4799791
 20
-55.47731656
 10
18.4899791
 20
-55.47731656
  0
LWPOLYLINE
  5
641
100
AcDbEntity
  8
detail
 62
     7
  6
CONTINUOUS
370
     9
100
AcDbPolyline
 90
        3
 70
     0
 43
0.0
 10
18.4899791
 20
-55.26731656
 10
18.4899791
 20
-55.29731656
 10
19.43681402
 20
-55.29731656
  0
LINE
  5
642
100
AcDbEntity
  8
detail
 62
     7
  6
CONTINUOUS
370
     9
100
AcDbLine
 10
19.43681402
 20
-55.26731656
 30
0.0
 11
18.4899791
 21
-55.26731656
 31
0.0
  0
LWPOLYLINE
  5
643
100
AcDbEntity
  8
detail
 62
    16
  6
CONTINUOUS
370
     5
100
AcDbPolyline
 90
        4
 70
     1
 43
0.0
 10
18.2999791
 20
-55.29731656
 10
18.4799791
 20
-55.29731656
 10
18.4799791
 20
-55.47731656
 10
18.2999791
 20
-55.47731656
  0
LWPOLYLINE
  5
644
100
AcDbEntity
  8
detail
 62
    16
  6
CONTINUOUS
370
     5
100
AcDbPolyline
 90
        4
 70
     1
 43
0.0
 10
18.2999791
 20
-55.23731656
 10
18.4799791
 20
-55.23731656
 10
18.4799791
 20
-55.29731656
 10
18.2999791
 20
-55.29731656
  0
LINE
  5
645
100
AcDbEntity
  8
detail
 62
    16
  6
CONTINUOUS
370
     5
100
AcDbLine
 10
18.54997911
 20
-55.26731656
 30
0.0
 11
18.54997911
 21
-54.98361476
 31
0.0
  0
LWPOLYLINE
  5
646
100
AcDbEntity
  8
detail
 62
    16
  6
CONTINUOUS
370
     5
100
AcDbPolyline
 90
        3
 70
     0
 43
0.0
 10
18.5399791
 20
-54.98361476
 10
18.5399791
 20
-55.26731656
 10
18.54997911
 20
-55.26731656
  0
LWPOLYLINE
  5
647
100
AcDbEntity
  8
detail
 62
    16
  6
CONTINUOUS
370
     5
100
AcDbPolyline
 90
        4
 70
     1
 43
0.0
 10
18.4899791
 20
-55.20731656
 10
18.5399791
 20
-55.20731656
 10
18.5399791
 20
-55.26731656
 10
18.4899791
 20
-55.26731656
  0
LWPOLYLINE
  5
648
100
AcDbEntity
  8
detail
 62
    16
  6
CONTINUOUS
370
     5
100
AcDbPolyline
 90
       32
 70
     0
 43
0.0
 10
18.4799791
 20
-55.48814989
 42
1.14028181
 10
18.45868158
 20
-55.49095377
 10
18.46877663
 20
-55.52867934
 42
-1.30322619
 10
18.44784824
 20
-55.52867934
 10
18.4579433
 20
-55.49095377
 42
1.30322619
 10
18.43701491
 20
-55.49095377
 10
18.44710997
 20
-55.52867934
 42
-1.30322619
 10
18.42618158
 20
-55.52867934
 10
18.43627663
 20
-55.49095377
 42
1.30322619
 10
18.41534824
 20
-55.49095377
 10
18.4254433
 20
-55.52867934
 42
-1.30322619
 10
18.40451491
 20
-55.52867934
 10
18.41460997
 20
-55.49095377
 42
1.30322619
 10
18.39368158
 20
-55.49095377
 10
18.40377663
 20
-55.52867934
 42
-1.30322619
 10
18.38284824
 20
-55.52867934
 10
18.3929433
 20
-55.49095377
 42
1.30322619
 10
18.37201491
 20
-55.49095377
 10
18.38210997
 20
-55.52867934
 42
-1.30322619
 10
18.36118158
 20
-55.52867934
 10
18.37127663
 20
-55.49095377
 42
1.30322619
 10
18.35034824
 20
-55.49095377
 10
18.3604433
 20
-55.52867934
 42
-1.30322619
 10
18.33951491
 20
-55.52867934
 10
18.34960997
 20
-55.49095377
 42
1.30322619
 10
18.32868158
 20
-55.49095377
 10
18.33877663
 20
-55.52867934
 42
-1.30322619
 10
18.31784824
 20
-55.52867934
 10
18.3279433
 20
-55.49095377
 42
1.30322619
 10
18.30701491
 20
-55.49095377
 10
18.31710997
 20
-55.52867934
 42
-0.71976389
 10
18.2999791
 20
-55.54002235
  0
LINE
  5
649
100
AcDbEntity
  8
detail
 62
    16
  6
CONTINUOUS
370
     5
100
AcDbLine
 10
18.55997911
 20
-55.17731659
 30
2.5
 11
18.55997911
 21
-54.98361476
 31
2.5
  0
LWPOLYLINE
  5
64A
100
AcDbEntity
  8
detail
 62
    16
  6
CONTINUOUS
370
     5
100
AcDbPolyline
 90
        4
 70
     0
 43
0.0
 10
19.43681402
 20
-55.52731656
 10
18.5549791
 20
-55.52731656
 10
18.5549791
 20
-55.54231656
 10
19.43681402
 20
-55.54231656
  0
LWPOLYLINE
  5
64B
100
AcDbEntity
  8
detail
 62
    16
  6
CONTINUOUS
370
     5
100
AcDbPolyline
 90
        4
 70
     1
 43
0.0
 10
18.5499791
 20
-55.47731656
 10
18.5999791
 20
-55.47731656
 10
18.5999791
 20
-55.52731656
 10
18.5499791
 20
-55.52731656
  0
LWPOLYLINE
  5
64C
100
AcDbEntity
  8
detail
 62
    16
  6
CONTINUOUS
370
     5
100
AcDbPolyline
 90
        4
 70
     1
 43
0.0
 10
19.0345415
 20
-55.47731656
 10
19.0845415
 20
-55.47731656
 10
19.0845415
 20
-55.52731656
 10
19.0345415
 20
-55.52731656
  0
LWPOLYLINE
  5
64D
100
AcDbEntity
  8
detail
 62
    16
  6
CONTINUOUS
370
     5
100
AcDbPolyline
 90
       16
 70
     0
 43
0.0
 10
18.4499791
 20
-55.23731656
 42
1.14028181
 10
18.44221452
 20
-55.17833879
 10
18.33774369
 20
-55.20629433
 42
-1.30322619
 10
18.33774369
 20
-55.14833879
 10
18.44221452
 20
-55.17629433
 42
1.30322619
 10
18.44221452
 20
-55.11833879
 10
18.33774369
 20
-55.14629433
 42
-1.30322619
 10
18.33774369
 20
-55.08833879
 10
18.44221452
 20
-55.11629433
 42
1.30322619
 10
18.44221452
 20
-55.05833879
 10
18.33774369
 20
-55.08629433
 42
-1.30322619
 10
18.33774369
 20
-55.02833879
 10
18.44221452
 20
-55.05629433
 42
1.30322619
 10
18.44221452
 20
-54.99833879
 10
18.33774369
 20
-55.02629433
 42
-0.6223608
 10
18.30227999
 20
-54.98579445
  0
LWPOLYLINE
  5
64E
100
AcDbEntity
  8
detail
 62
    16
  6
CONTINUOUS
370
     5
100
AcDbPolyline
 90
        3
 70
     0
 43
0.0
 10
18.40297612
 20
-54.98579445
 10
18.44221452
 20
-54.99629433
 42
0.30087314
 10
18.47361313
 20
-54.98579445
  0
LWPOLYLINE
  5
64F
100
AcDbEntity
  8
detail
 62
    16
  6
CONTINUOUS
370
     5
100
AcDbPolyline
 90
       52
 70
     0
 43
0.0
 10
18.53164577
 20
-55.20731656
 42
1.14028181
 10
18.52948894
 20
-55.19093384
 10
18.50046927
 20
-55.19869927
 42
-1.30322619
 10
18.50046927
 20
-55.18260051
 10
18.52948894
 20
-55.19036594
 42
1.30322619
 10
18.52948894
 20
-55.17426718
 10
18.50046927
 20
-55.1820326
 42
-1.30322619
 10
18.50046927
 20
-55.16593384
 10
18.52948894
 20
-55.17369927
 42
1.30322619
 10
18.52948894
 20
-55.15760051
 10
18.50046927
 20
-55.16536594
 42
-1.30322619
 10
18.50046927
 20
-55.14926718
 10
18.52948894
 20
-55.1570326
 42
1.30322619
 10
18.52948894
 20
-55.14093384
 10
18.50046927
 20
-55.14869927
 42
-1.30322619
 10
18.50046927
 20
-55.13260051
 10
18.52948894
 20
-55.14036594
 42
1.30322619
 10
18.52948894
 20
-55.12426718
 10
18.50046927
 20
-55.1320326
 42
-1.30322619
 10
18.50046927
 20
-55.11593384
 10
18.52948894
 20
-55.12369927
 42
1.30322619
 10
18.52948894
 20
-55.10760051
 10
18.50046927
 20
-55.11536594
 42
-1.30322619
 10
18.50046927
 20
-55.09926718
 10
18.52948894
 20
-55.1070326
 42
1.30322619
 10
18.52948894
 20
-55.09093384
 10
18.50046927
 20
-55.09869927
 42
-1.30322619
 10
18.50046927
 20
-55.08260051
 10
18.52948894
 20
-55.09036594
 42
1.30322619
 10
18.52948894
 20
-55.07426718
 10
18.50046927
 20
-55.0820326
 42
-1.30322619
 10
18.50046927
 20
-55.06593384
 10
18.52948894
 20
-55.07369927
 42
1.30322619
 10
18.52948894
 20
-55.05760051
 10
18.50046927
 20
-55.06536594
 42
-1.30322619
 10
18.50046927
 20
-55.04926718
 10
18.52948894
 20
-55.0570326
 42
1.30322619
 10
18.52948894
 20
-55.04093384
 10
18.50046927
 20
-55.04869927
 42
-1.30322619
 10
18.50046927
 20
-55.03260051
 10
18.52948894
 20
-55.04036594
 42
1.30322619
 10
18.52948894
 20
-55.02426718
 10
18.50046927
 20
-55.0320326
 42
-1.30322619
 10
18.50046927
 20
-55.01593384
 10
18.52948894
 20
-55.02369927
 42
1.30322619
 10
18.52948894
 20
-55.00760051
 10
18.50046927
 20
-55.01536594
 42
-1.30322619
 10
18.50046927
 20
-54.99926718
 10
18.52948894
 20
-55.0070326
 42
1.30322619
 10
18.52948894
 20
-54.99093384
 10
18.50046927
 20
-54.99869927
 42
-0.70436016
 10
18.49153976
 20
-54.98579445
  0
LWPOLYLINE
  5
650
100
AcDbEntity
  8
detail
 62
    16
  6
CONTINUOUS
370
     5
100
AcDbPolyline
 90
        3
 70
     0
 43
0.0
 10
18.51240514
 20
-54.98579445
 10
18.52948894
 20
-54.99036594
 42
0.3656156
 10
18.53921866
 20
-54.98579445
  0
LINE
  5
651
100
AcDbEntity
  8
detail
 62
    16
  6
CONTINUOUS
370
     5
100
AcDbLine
 10
18.1979791
 20
-56.7445734
 30
0.0
 11
18.1979791
 21
-55.8660516
 31
0.0
  0
LINE
  5
652
100
AcDbEntity
  8
detail
 62
   250
  6
CADWORK_LK1
370
     5
100
AcDbLine
 10
18.2279791
 20
-56.7445734
 30
0.0
 11
18.2279791
 21
-55.8410516
 31
0.0
  0
LINE
  5
653
100
AcDbEntity
  8
detail
 62
   250
  6
CADWORK_LK1
370
     5
100
AcDbLine
 10
18.2999791
 20
-56.7445734
 30
0.0
 11
18.2999791
 21
-55.54231656
 31
0.0
  0
LINE
  5
654
100
AcDbEntity
  8
detail
 62
    16
  6
CONTINUOUS
370
     5
100
AcDbLine
 10
18.31350283
 20
-55.83276019
 30
0.0
 11
18.31350283
 21
-56.7445734
 31
0.0
  0
LINE
  5
655
100
AcDbEntity
  8
detail
 62
    16
  6
CONTINUOUS
370
     5
100
AcDbLine
 10
18.3519791
 20
-55.85059934
 30
0.0
 11
18.3519791
 21
-56.7445734
 31
0.0
  0
LINE
  5
656
100
AcDbEntity
  8
detail
 62
    16
  6
CONTINUOUS
370
     5
100
AcDbLine
 10
18.3549791
 20
-55.85059934
 30
0.0
 11
18.3549791
 21
-56.7445734
 31
0.0
  0
LINE
  5
657
100
AcDbEntity
  8
detail
 62
    16
  6
CONTINUOUS
370
     5
100
AcDbLine
 10
18.3339791
 20
-55.85059934
 30
0.0
 11
18.3339791
 21
-56.7445734
 31
0.0
  0
LINE
  5
658
100
AcDbEntity
  8
detail
 62
    16
  6
CONTINUOUS
370
     5
100
AcDbLine
 10
18.3279791
 20
-55.83296703
 30
0.0
 11
18.3279791
 21
-56.7445734
 31
0.0
  0
LINE
  5
659
100
AcDbEntity
  8
detail
 62
    16
  6
CONTINUOUS
370
     5
100
AcDbLine
 10
18.3309791
 20
-55.85059934
 30
0.0
 11
18.3309791
 21
-56.7445734
 31
0.0
  0
LINE
  5
65A
100
AcDbEntity
  8
detail
 62
    16
  6
CONTINUOUS
370
     5
100
AcDbLine
 10
18.31065856
 20
-55.83276019
 30
0.0
 11
18.31065856
 21
-56.7445734
 31
0.0
  0
3DFACE
  5
65B
100
AcDbEntity
  8
detail
 62
    16
  6
CONTINUOUS
370
     5
100
AcDbFace
 70
     8
 10
18.5439791
 20
-56.40612933
 30
2.5
 11
18.5439791
 21
-56.7445734
 31
2.5
 12
18.5489791
 22
-56.7445734
 32
2.5
 13
18.5489791
 23
-56.40612933
 33
2.5
  0
3DFACE
  5
65C
100
AcDbEntity
  8
detail
 62
    16
  6
CONTINUOUS
370
     5
100
AcDbFace
 70
     8
 10
18.52852837
 20
-56.40612933
 30
2.5
 11
18.52852837
 21
-56.7445734
 31
2.5
 12
18.53352837
 22
-56.7445734
 32
2.5
 13
18.53352837
 23
-56.40612933
 33
2.5
  0
LINE
  5
65D
100
AcDbEntity
  8
detail
 62
    16
  6
CONTINUOUS
370
     5
100
AcDbLine
 10
18.5659791
 20
-56.7445734
 30
0.0
 11
18.5659791
 21
-56.40612933
 31
0.0
  0
LINE
  5
65E
100
AcDbEntity
  8
detail
 62
    16
  6
CONTINUOUS
370
     5
100
AcDbLine
 10
18.4884791
 20
-56.7445734
 30
0.0
 11
18.4884791
 21
-56.40612933
 31
0.0
  0
3DFACE
  5
65F
100
AcDbEntity
  8
detail
 62
    16
  6
CONTINUOUS
370
     5
100
AcDbFace
 70
     8
 10
18.51307763
 20
-56.40612933
 30
2.5
 11
18.51307763
 21
-56.7445734
 31
2.5
 12
18.51807763
 22
-56.7445734
 32
2.5
 13
18.51807763
 23
-56.40612933
 33
2.5
  0
LINE
  5
660
100
AcDbEntity
  8
detail
 62
   250
  6
CADWORK_LK1
370
     5
100
AcDbLine
 10
18.4799791
 20
-56.7445734
 30
0.0
 11
18.47997911
 21
-55.87450309
 31
0.0
  0
CIRCLE
  5
661
100
AcDbEntity
  8
detail
 62
     4
  6
CONTINUOUS
370
     9
100
AcDbCircle
 10
18.38471889
 20
-55.75228693
 30
0.0
 40
0.00396612
  0
CIRCLE
  5
662
100
AcDbEntity
  8
detail
 62
     4
  6
CONTINUOUS
370
     9
100
AcDbCircle
 10
18.41270292
 20
-55.86280411
 30
0.0
 40
0.00396612
  0
CIRCLE
  5
663
100
AcDbEntity
  8
detail
 62
     4
  6
CONTINUOUS
370
     9
100
AcDbCircle
 10
18.31591394
 20
-56.20783263
 30
0.0
 40
0.00396612
  0
CIRCLE
  5
664
100
AcDbEntity
  8
detail
 62
     4
  6
CONTINUOUS
370
     9
100
AcDbCircle
 10
18.34125067
 20
-56.26398722
 30
0.0
 40
0.00396612
  0
LINE
  5
665
100
AcDbEntity
  8
detail
 62
     4
  6
CONTINUOUS
370
     5
100
AcDbLine
 10
18.12724343
 20
-56.20783263
 30
0.0
 11
18.31591394
 21
-56.20783263
 31
0.0
  0
LINE
  5
666
100
AcDbEntity
  8
detail
 62
     4
  6
CONTINUOUS
370
     5
100
AcDbLine
 10
18.74457761
 20
-56.26448745
 30
0.0
 11
18.34125067
 21
-56.26448745
 31
0.0
  0
LWPOLYLINE
  5
667
100
AcDbEntity
  8
detail
 62
     4
  6
CONTINUOUS
370
     5
100
AcDbPolyline
 90
        3
 70
     0
 43
0.0
 10
18.74480239
 20
-55.96091675
 10
18.49699213
 20
-55.96091675
 10
18.41270292
 20
-55.86280411
  0
LWPOLYLINE
  5
668
100
AcDbEntity
  8
detail
 62
     4
  6
CONTINUOUS
370
     5
100
AcDbPolyline
 90
        3
 70
     0
 43
0.0
 10
18.17410824
 20
-55.92338099
 10
18.27862687
 20
-55.92338099
 10
18.38471889
 20
-55.75228693
  0
LINE
  5
669
100
AcDbEntity
  8
detail
 62
     4
  6
CONTINUOUS
370
     5
100
AcDbLine
 10
18.12724343
 20
-56.20783263
 30
0.0
 11
18.3041482
 21
-56.20783263
 31
0.0
  0
LINE
  5
66A
100
AcDbEntity
  8
detail
 62
     4
  6
CONTINUOUS
370
     5
100
AcDbLine
 10
18.14253545
 20
-56.41098502
 30
0.0
 11
18.26045411
 21
-56.41098502
 31
0.0
  0
CIRCLE
  5
66B
100
AcDbEntity
  8
detail
 62
     4
  6
CONTINUOUS
370
     9
100
AcDbCircle
 10
18.26045411
 20
-56.41098502
 30
0.0
 40
0.00396612
  0
CIRCLE
  5
66C
100
AcDbEntity
  8
detail
 62
     4
  6
CONTINUOUS
370
     9
100
AcDbCircle
 10
18.51628602
 20
-55.65427264
 30
0.0
 40
0.00396612
  0
LINE
  5
66D
100
AcDbEntity
  8
detail
 62
     4
  6
CONTINUOUS
370
     5
100
AcDbLine
 10
18.74480239
 20
-55.65427264
 30
0.0
 11
18.51628602
 21
-55.65427264
 31
0.0
  0
LINE
  5
66E
100
AcDbEntity
  8
detail
 62
    16
  6
CONTINUOUS
370
     5
100
AcDbLine
 10
18.26662587
 20
-55.64436582
 30
0.0
 11
18.26662587
 21
-55.59372591
 31
0.0
  0
LINE
  5
66F
100
AcDbEntity
  8
detail
 62
    16
  6
CONTINUOUS
370
     5
100
AcDbLine
 10
18.26662587
 20
-55.59372591
 30
0.0
 11
18.27056453
 21
-55.6008798
 31
0.0
  0
LINE
  5
670
100
AcDbEntity
  8
detail
 62
    16
  6
CONTINUOUS
370
     5
100
AcDbLine
 10
18.26662587
 20
-55.59372591
 30
0.0
 11
18.26268722
 21
-55.6008798
 31
0.0
  0
LINE
  5
671
100
AcDbEntity
  8
detail
 62
    16
  6
CONTINUOUS
370
     5
100
AcDbLine
 10
18.26662587
 20
-55.24020102
 30
0.0
 11
18.26662587
 21
-55.18956111
 31
0.0
  0
LINE
  5
672
100
AcDbEntity
  8
detail
 62
    16
  6
CONTINUOUS
370
     5
100
AcDbLine
 10
18.26662587
 20
-55.18956111
 30
0.0
 11
18.27056453
 21
-55.196715
 31
0.0
  0
LINE
  5
673
100
AcDbEntity
  8
detail
 62
    16
  6
CONTINUOUS
370
     5
100
AcDbLine
 10
18.26662587
 20
-55.18956111
 30
0.0
 11
18.26268722
 21
-55.196715
 31
0.0
  0
TEXT
  5
674
100
AcDbEntity
  8
detail
 62
    16
370
     5
100
AcDbText
 10
19.92950385
 20
-54.91737538
 30
0.0
 40
0.036
  1

  7
ARIAL
 50
0.0
 41
0.89
 51
0.0
100
AcDbText
  0
TEXT
  5
675
100
AcDbEntity
  8
detail
 62
    16
370
     5
100
AcDbText
 10
22.55753226
 20
-59.76432834
 30
0.0
 40
0.07
  1

  7
ARIAL
 50
0.0
 41
1.0
 51
0.0
100
AcDbText
  0
TEXT
  5
676
100
AcDbEntity
  8
detail
 62
    16
370
     5
100
AcDbText
 10
25.04381915
 20
-54.91737538
 30
0.0
 40
0.036
  1

  7
ARIAL
 50
0.0
 41
0.89
 51
0.0
100
AcDbText
  0
TEXT
  5
677
100
AcDbEntity
  8
detail
 62
     7
370
    18
100
AcDbText
 10
18.85350306
 20
-55.66731038
 30
0.0
 40
0.042
  1

  7
FRUTIGER_55_ROMAN
 50
0.0
 41
0.89
 51
0.0
100
AcDbText
  0
TEXT
  5
678
100
AcDbEntity
  8
detail
 62
   160
370
    18
100
AcDbText
 10
18.02088931
 20
-55.63644708
 30
0.0
 40
0.012
  1
Systemhöhe
  7
FRUTIGER_55_ROMAN
 50
0.0
 41
0.94
 51
0.0
100
AcDbText
  0
TEXT
  5
679
100
AcDbEntity
  8
detail
 62
   160
370
    18
100
AcDbText
 10
18.02088931
 20
-55.71905051
 30
0.0
 40
0.012
  1
Wellenhöhe
  7
FRUTIGER_55_ROMAN
 50
0.0
 41
0.94
 51
0.0
100
AcDbText
  0
TEXT
  5
67A
100
AcDbEntity
  8
detail
 62
   160
370
    18
100
AcDbText
 10
18.02088931
 20
-55.82280305
 30
0.0
 40
0.012
  1
Führungshöhe
  7
FRUTIGER_55_ROMAN
 50
0.0
 41
0.94
 51
0.0
100
AcDbText
  0
TEXT
  5
67B
100
AcDbEntity
  8
detail
 62
   160
370
    18
100
AcDbText
 10
18.33238914
 20
-56.12380812
 30
0.0
 40
0.016
  1
Sturz Breite
  7
FRUTIGER_55_ROMAN
 50
0.0
 41
0.94
 51
0.0
100
AcDbText
  0
TEXT
  5
67C
100
AcDbEntity
  8
detail
 62
   160
370
    18
100
AcDbText
 10
18.72714695
 20
-55.77974709
 30
0.0
 40
0.016
  1
Sturz Höhe
  7
FRUTIGER_55_ROMAN
 50
89.9999975
 41
0.94
 51
0.0
100
AcDbText
  0
TEXT
  5
67D
100
AcDbEntity
  8
detail
 62
   160
370
    18
100
AcDbText
 10
18.34152896
 20
-56.59705998
 30
0.0
 40
0.016
  1
Führungsschiene
  7
FRUTIGER_55_ROMAN
 50
0.0
 41
0.94
 51
0.0
100
AcDbText
  0
TEXT
  5
67E
100
AcDbEntity
  8
detail
 62
     7
370
    18
100
AcDbText
 10
17.9359905
 20
-55.92888931
 30
0.0
 40
0.016
  1
Rollladen ECOMONT 16+
  7
FRUTIGER_55_ROMAN
 50
0.0
 41
0.89
 51
0.0
100
AcDbText
  0
TEXT
  5
67F
100
AcDbEntity
  8
detail
 62
     7
370
    18
100
AcDbText
 10
17.9359905
 20
-55.95985003
 30
0.0
 40
0.016
  1
mit Lagerkonsole
  7
FRUTIGER_55_ROMAN
 50
0.0
 41
0.89
 51
0.0
100
AcDbText
  0
TEXT
  5
680
100
AcDbEntity
  8
detail
 62
     7
370
    18
100
AcDbText
 10
18.76593238
 20
-55.96729561
 30
0.0
 40
0.016
  1
Untersichtsblende (Revisionsblech)
  7
FRUTIGER_55_ROMAN
 50
0.0
 41
0.89
 51
0.0
100
AcDbText
  0
TEXT
  5
681
100
AcDbEntity
  8
detail
 62
     7
370
    18
100
AcDbText
 10
18.76593238
 20
-55.99876358
 30
0.0
 40
0.016
  1
seitlich in Lagerplatte gehalten
  7
FRUTIGER_55_ROMAN
 50
0.0
 41
0.89
 51
0.0
100
AcDbText
  0
TEXT
  5
682
100
AcDbEntity
  8
detail
 62
     7
370
    18
100
AcDbText
 10
17.9359905
 20
-56.21514806
 30
0.0
 40
0.016
  1
Führungsschiene mit
  7
FRUTIGER_55_ROMAN
 50
0.0
 41
0.89
 51
0.0
100
AcDbText
  0
TEXT
  5
683
100
AcDbEntity
  8
detail
 62
     7
370
    18
100
AcDbText
 10
17.9359905
 20
-56.24446664
 30
0.0
 40
0.016
  1
Bohrungen
  7
FRUTIGER_55_ROMAN
 50
0.0
 41
0.89
 51
0.0
100
AcDbText
  0
TEXT
  5
684
100
AcDbEntity
  8
detail
 62
     7
370
    18
100
AcDbText
 10
18.76593238
 20
-56.27180288
 30
0.0
 40
0.016
  1
Führungsschiene für Insektenschutznetz
  7
FRUTIGER_55_ROMAN
 50
0.0
 41
0.89
 51
0.0
100
AcDbText
  0
TEXT
  5
685
100
AcDbEntity
  8
detail
 62
     7
370
    18
100
AcDbText
 10
17.9359905
 20
-56.41830045
 30
0.0
 40
0.016
  1
Leibungsbrett
  7
FRUTIGER_55_ROMAN
 50
0.0
 41
0.89
 51
0.0
100
AcDbText
  0
TEXT
  5
686
100
AcDbEntity
  8
detail
 62
     7
370
    18
100
AcDbText
 10
17.9359905
 20
-56.44761903
 30
0.0
 40
0.016
  1
Führungsschiene kann
  7
FRUTIGER_55_ROMAN
 50
0.0
 41
0.89
 51
0.0
100
AcDbText
  0
TEXT
  5
687
100
AcDbEntity
  8
detail
 62
     7
370
    18
100
AcDbText
 10
17.9359905
 20
-56.47685712
 30
0.0
 40
0.016
  1
variabel befestigt werden
  7
FRUTIGER_55_ROMAN
 50
0.0
 41
0.89
 51
0.0
100
AcDbText
  0
TEXT
  5
688
100
AcDbEntity
  8
detail
 62
     7
370
    18
100
AcDbText
 10
18.90360468
 20
-56.66616622
 30
0.0
 40
0.025
  1
Massangabe in mm
  7
FRUTIGER_55_ROMAN
 50
0.0
 41
0.89
 51
0.0
100
AcDbText
  0
TEXT
  5
689
100
AcDbEntity
  8
detail
 62
     7
370
    35
100
AcDbText
 10
17.9359905
 20
-55.12606425
 30
0.0
 40
0.016
  1
Variante Wndaufbau
  7
FRUTIGER_55_ROMAN
 50
0.0
 41
0.89
 51
0.0
100
AcDbText
  0
TEXT
  5
68A
100
AcDbEntity
  8
detail
 62
     7
370
    18
100
AcDbText
 10
17.9359905
 20
-55.16350898
 30
0.0
 40
0.016
  1
Aussen-Stülpschalung
  7
FRUTIGER_55_ROMAN
 50
0.0
 41
0.89
 51
0.0
100
AcDbText
  0
TEXT
  5
68B
100
AcDbEntity
  8
detail
 62
     7
370
    18
100
AcDbText
 10
17.9359905
 20
-55.19274402
 30
0.0
 40
0.016
  1
Hinterlüftungsrost
  7
FRUTIGER_55_ROMAN
 50
0.0
 41
0.89
 51
0.0
100
AcDbText
  0
TEXT
  5
68C
100
AcDbEntity
  8
detail
 62
     7
370
    18
100
AcDbText
 10
17.9359905
 20
-55.22322943
 30
0.0
 40
0.016
  1
Holzfaserplatte
  7
FRUTIGER_55_ROMAN
 50
0.0
 41
0.89
 51
0.0
100
AcDbText
  0
TEXT
  5
68D
100
AcDbEntity
  8
detail
 62
     7
370
    18
100
AcDbText
 10
17.9359905
 20
-55.25457796
 30
0.0
 40
0.016
  1
Ständerkonstr. ausisoliert
  7
FRUTIGER_55_ROMAN
 50
0.0
 41
0.89
 51
0.0
100
AcDbText
  0
TEXT
  5
68E
100
AcDbEntity
  8
detail
 62
     7
370
    18
100
AcDbText
 10
17.9359905
 20
-55.28192852
 30
0.0
 40
0.016
  1
OSB Platte
  7
FRUTIGER_55_ROMAN
 50
0.0
 41
0.89
 51
0.0
100
AcDbText
  0
TEXT
  5
68F
100
AcDbEntity
  8
detail
 62
     7
370
    18
100
AcDbText
 10
17.9359905
 20
-55.30927908
 30
0.0
 40
0.016
  1
Installationsrost ev. isoliert
  7
FRUTIGER_55_ROMAN
 50
0.0
 41
0.89
 51
0.0
100
AcDbText
  0
TEXT
  5
690
100
AcDbEntity
  8
detail
 62
     7
370
    18
100
AcDbText
 10
17.9359905
 20
-55.33662964
 30
0.0
 40
0.016
  1
Gipskartonplatte
  7
FRUTIGER_55_ROMAN
 50
0.0
 41
0.89
 51
0.0
100
AcDbText
  0
TEXT
  5
691
100
AcDbEntity
  8
detail
 62
     7
370
    18
100
AcDbText
 10
18.76593238
 20
-55.66008959
 30
0.0
 40
0.016
  1
Fenster Rahmenverbreiterung
  7
FRUTIGER_55_ROMAN
 50
0.0
 41
0.89
 51
0.0
100
AcDbText
  0
INSERT
  5
692
100
AcDbEntity
  8
detail
 62
     0
370
    -3
100
AcDbBlockReference
  2
*D1
 10
0.0
 20
0.0
 30
0.0
  0
INSERT
  5
693
100
AcDbEntity
  8
detail
 62
     0
370
    -3
100
AcDbBlockReference
  2
*D2
 10
0.0
 20
0.0
 30
0.0
  0
INSERT
  5
694
100
AcDbEntity
  8
detail
 62
     0
370
    -3
100
AcDbBlockReference
  2
*D3
 10
0.0
 20
0.0
 30
0.0
  0
INSERT
  5
695
100
AcDbEntity
  8
detail
 62
     0
370
    -3
100
AcDbBlockReference
  2
*D4
 10
0.0
 20
0.0
 30
0.0
  0
INSERT
  5
696
100
AcDbEntity
  8
detail
 62
     0
370
    -3
100
AcDbBlockReference
  2
*D5
 10
0.0
 20
0.0
 30
0.0
  0
INSERT
  5
697
100
AcDbEntity
  8
detail
 62
     0
370
    -3
100
AcDbBlockReference
  2
*D6
 10
0.0
 20
0.0
 30
0.0
  0
INSERT
  5
698
100
AcDbEntity
  8
detail
 62
     0
370
    -3
100
AcDbBlockReference
  2
*D7
 10
0.0
 20
0.0
 30
0.0
  0
INSERT
  5
699
100
AcDbEntity
  8
detail
 62
     0
370
    -3
100
AcDbBlockReference
  2
*D8
 10
0.0
 20
0.0
 30
0.0
  0
INSERT
  5
69A
100
AcDbEntity
  8
detail
 62
     0
370
     9
100
AcDbBlockReference
  2
*D9
 10
0.0
 20
0.0
 30
0.0
  0
INSERT
  5
69B
100
AcDbEntity
  8
detail
 62
     0
370
    -3
100
AcDbBlockReference
  2
*D10
 10
0.0
 20
0.0
 30
0.0
  0
ENDSEC
  0
SECTION
  2
OBJECTS
  0
DICTIONARY
  5
1
100
AcDbDictionary
  3
ACAD_GROUP
350
2
  3
ACAD_MLINESTYLE
350
3
  0
DICTIONARY
  5
2
102
{CDWK_REACTORS
330
1
102
}
100
AcDbDictionary
  0
DICTIONARY
  5
3
102
{CDWK_REACTORS
330
1
102
}
100
AcDbDictionary
  3
STANDARD
350
4
  0
MLINESTYLE
  5
4
102
{CDWK_REACTORS
330
3
102
}
100
AcDbMlineStyle
  2
STANDARD
 70
     0
  3

 62
     0
 51
90.0
 52
90.0
 71
     2
 49
0.5
 62
   256
  6
BYLAYER
 49
-0.5
 62
   256
  6
BYLAYER
  0
ENDSEC
  0
EOF
