  0
SECTION
  2
HEADER
  9
$ACADVER
  1
AC1014
  9
$DWGCODEPAGE
  3
ANSI_1252
  9
$INSBASE
 10
0.0
 20
0.0
 30
0.0
  9
$EXTMIN
 10
1.74954005
 20
-5.72483906
  9
$EXTMAX
 10
2.2474614
 20
-5.42783906
  9
$LIMMIN
 10
1.74954005
 20
-5.72483906
  9
$LIMMAX
 10
2.2474614
 20
-5.42783906
  9
$ORTHOMODE
 70
     0
  9
$REGENMODE
 70
     1
  9
$FILLMODE
 70
     1
  9
$QTEXTMODE
 70
     0
  9
$MIRRTEXT
 70
     1
  9
$DRAGMODE
 70
     2
  9
$LTSCALE
 40
0.001
  9
$OSMODE
 70
     0
  9
$ATTMODE
 70
     1
  9
$TEXTSIZE
 40
3.5
  9
$TRACEWID
 40
1.0
  9
$TEXTSTYLE
  7
STANDARD
  9
$CLAYER
  8
0
  9
$CELTYPE
  6
BYLAYER
  9
$CECOLOR
 62
   256
  9
$DIMSCALE
 40
1.0
  9
$DIMASZ
 40
4.0
  9
$DIMEXO
 40
5.0
  9
$DIMDLI
 40
10.0
  9
$DIMRND
 40
0.0
  9
$DIMDLE
 40
2.0
  9
$DIMEXE
 40
2.0
  9
$DIMTP
 40
0.0
  9
$DIMTM
 40
0.0
  9
$DIMTXT
 40
1.6
  9
$DIMCEN
 40
1.5
  9
$DIMTSZ
 40
0.0
  9
$DIMTOL
 70
     0
  9
$DIMLIM
 70
     0
  9
$DIMTIH
 70
     1
  9
$DIMTOH
 70
     0
  9
$DIMSE1
 70
     0
  9
$DIMSE2
 70
     0
  9
$DIMTAD
 70
     1
  9
$DIMZIN
 70
     8
  9
$DIMBLK
  1

  9
$DIMASO
 70
     1
  9
$DIMSHO
 70
     1
  9
$DIMPOST
  1

  9
$DIMAPOST
  1

  9
$DIMALT
 70
     0
  9
$DIMALTD
 70
     2
  9
$DIMALTF
 40
25.4
  9
$DIMLFAC
 40
1.0
  9
$DIMTOFL
 70
     0
  9
$DIMTVP
 40
0.0
  9
$DIMTIX
 70
     0
  9
$DIMSOXD
 70
     0
  9
$DIMSAH
 70
     0
  9
$DIMBLK1
  1

  9
$DIMBLK2
  1

  9
$DIMSTYLE
  2
*UNNAMED
  9
$DIMCLRD
 70
     9
  9
$DIMCLRE
 70
     9
  9
$DIMCLRT
 70
     4
  9
$DIMTFAC
 40
1.0
  9
$DIMGAP
 40
0.09
  9
$DIMUNIT
 70
     2
  9
$LUNITS
 70
     2
  9
$LUPREC
 70
     6
  9
$AXISMODE
 70
     0
  9
$AXISUNIT
 10
0.0
 20
0.0
  9
$SKETCHINC
 40
0.1
  9
$FILLETRAD
 40
0.0
  9
$AUNITS
 70
     0
  9
$AUPREC
 70
     0
  9
$MENU
  1
ACAD
  9
$ELEVATION
 40
0.0
  9
$PELEVATION
 40
0.0
  9
$THICKNESS
 40
0.0
  9
$LIMCHECK
 70
     0
  9
$BLIPMODE
 70
     1
  9
$CHAMFERA
 40
0.0
  9
$CHAMFERB
 40
0.0
  9
$SKPOLY
 70
     1
  9
$TDCREATE
 40
2456705.0000000000
  9
$TDUPDATE
 40
2456705.0000000000
  9
$TDINDWG
 40
0.0
  9
$TDUSRTIMER
 40
0.0
  9
$USRTIMER
 70
     1
  9
$ANGBASE
 50
0.0
  9
$ANGDIR
 70
     0
  9
$PDMODE
 70
     0
  9
$PDSIZE
 40
0.0
  9
$PLINEWID
 40
0.0
  9
$COORDS
 70
     2
  9
$SPLFRAME
 70
     0
  9
$SPLINETYPE
 70
     6
  9
$SPLINESEGS
 70
     8
  9
$ATTDIA
 70
     1
  9
$ATTREQ
 70
     1
  9
$HANDLING
 70
     1
  9
$HANDSEED
  5
     5DA
  9
$SURFTAB1
 70
     6
  9
$SURFTAB2
 70
     6
  9
$SURFTYPE
 70
     6
  9
$SURFU
 70
     6
  9
$SURFV
 70
     6
  9
$UCSNAME
  2

  9
$UCSORG
 10
0.0
 20
0.0
 30
0.0
  9
$UCSXDIR
 10
1.0
 20
0.0
 30
0.0
  9
$UCSYDIR
 10
0.0
 20
1.0
 30
0.0
  9
$PUCSNAME
  2

  9
$PUCSORG
 10
0.0
 20
0.0
 30
0.0
  9
$PUCSXDIR
 10
1.0
 20
0.0
 30
0.0
  9
$PUCSYDIR
 10
0.0
 20
1.0
 30
0.0
  9
$USERI1
 70
     0
  9
$USERI2
 70
     0
  9
$USERI3
 70
     0
  9
$USERI4
 70
     0
  9
$USERI5
 70
     0
  9
$USERR1
 40
0.0
  9
$USERR2
 40
0.0
  9
$USERR3
 40
0.0
  9
$USERR4
 40
0.0
  9
$USERR5
 40
0.0
  9
$WORLDVIEW
 70
     1
  9
$SHADEDGE
 70
     3
  9
$SHADEDIF
 70
    70
  9
$TILEMODE
 70
     1
  9
$MAXACTVP
 70
    16
  9
$PINSBASE
 10
0.0
 20
0.0
 30
0.0
  9
$PLIMCHECK
 70
     0
  9
$PEXTMIN
 10
1.0000000000000E+20
 20
1.0000000000000E+20
 30
1.0000000000000E+20
  9
$PEXTMAX
 10
-1.0000000000000E+20
 20
-1.0000000000000E+20
 30
-1.0000000000000E+20
  9
$PLIMMIN
 10
0.0
 20
0.0
  9
$UNITMODE
 70
     0
  9
$VISRETAIN
 70
     0
  9
$MEASUREMENT
 70
     1
  0
ENDSEC
  0
SECTION
  2
TABLES
  0
TABLE
  2
VPORT
  5
36
100
AcDbSymbolTable
 70
     1
  0
ENDTAB
  0
TABLE
  2
STYLE
  5
37
100
AcDbSymbolTable
 70
     4
  0
STYLE
  5
38
100
AcDbSymbolTableRecord
100
AcDbTextStyleTableRecord
  2
STANDARD
 70
     0
 40
0.0
 41
1.0
 50
0.0
 71
     0
 42
3.5
  3
MONOTXT
  4

  0
STYLE
  5
39
100
AcDbSymbolTableRecord
100
AcDbTextStyleTableRecord
  2
CADWORK1
 70
     0
 40
0.0
 41
1.0
 50
0.0
 71
     0
 42
3.5
  3
MONOTXT
  4

  0
STYLE
  5
3A
100
AcDbSymbolTableRecord
100
AcDbTextStyleTableRecord
  2
MONOTXT
 70
     0
 40
0.0
 41
1.0
 50
0.0
 71
     0
 42
3.5
  3
MONOTXT
  4

  0
STYLE
  5
3B
100
AcDbSymbolTableRecord
100
AcDbTextStyleTableRecord
  2
FRUTIGER_55_ROMAN
 70
     0
 40
0.0
 41
1.0
 50
0.0
 71
     0
 42
3.5
  3

  4

1001
ACAD
1000
Frutiger 55 Roman
1071
        0
  0
STYLE
  5
3C
100
AcDbSymbolTableRecord
100
AcDbTextStyleTableRecord
  2
ARIAL
 70
     0
 40
0.0
 41
1.0
 50
0.0
 71
     0
 42
3.5
  3

  4

1001
ACAD
1000
Arial
1071
        0
  0
ENDTAB
  0
TABLE
  2
LTYPE
  5
3D
100
AcDbSymbolTable
 70
    14
  0
LTYPE
  5
3E
100
AcDbSymbolTableRecord
100
AcDbLinetypeTableRecord
  2
BYBLOCK
 70
    64
  3

 72
    65
 73
     0
 40
0.0
  0
LTYPE
  5
3F
100
AcDbSymbolTableRecord
100
AcDbLinetypeTableRecord
  2
BYLAYER
 70
    64
  3

 72
    65
 73
     0
 40
0.0
  0
LTYPE
  5
40
100
AcDbSymbolTableRecord
100
AcDbLinetypeTableRecord
  2
CONTINUOUS
 70
    64
  3
Solid line
 72
    65
 73
     0
 40
0.0
  0
LTYPE
  5
41
100
AcDbSymbolTableRecord
100
AcDbLinetypeTableRecord
  2
HIDDEN
 70
    64
  3
__ __ __ __ __ __ __ __ __ __ __ __ __ __ __ __
 72
    65
 73
     2
 40
1.875
 49
1.25
 74
     0
 49
-0.625
 74
     0
  0
LTYPE
  5
42
100
AcDbSymbolTableRecord
100
AcDbLinetypeTableRecord
  2
DASHDOT
 70
    64
  3
 __ . __ . __ . __ . __ . __ . __ . __ . __ . __
 72
    65
 73
     4
 40
10.0
 49
5.0
 74
     0
 49
-2.5
 74
     0
 49
0.0
 74
     0
 49
-2.5
 74
     0
  0
LTYPE
  5
43
100
AcDbSymbolTableRecord
100
AcDbLinetypeTableRecord
  2
CENTER
 70
    64
  3
 ____ _ ____ _ ____ _ ____ _ ____ _ ____ _ ____
 72
    65
 73
     4
 40
20.0
 49
12.5
 74
     0
 49
-2.5
 74
     0
 49
2.5
 74
     0
 49
-2.5
 74
     0
  0
LTYPE
  5
44
100
AcDbSymbolTableRecord
100
AcDbLinetypeTableRecord
  2
CADWORK_LK1
 70
    64
  3
User defined cadwork LK1
 72
    65
 73
     2
 40
1.25
 49
0.5
 74
     0
 49
-0.75
 74
     0
  0
LTYPE
  5
45
100
AcDbSymbolTableRecord
100
AcDbLinetypeTableRecord
  2
CADWORK_AC4
 70
    64
  3
User defined cadwork AC4
 72
    65
 73
     2
 40
10.0
 49
50.0
 74
     0
 49
40.0
 74
     0
  0
LTYPE
  5
46
100
AcDbSymbolTableRecord
100
AcDbLinetypeTableRecord
  2
DAL
 70
    64
  3
Solid line (for MAPS)
 72
    65
 73
     0
 40
0.0
  0
LTYPE
  5
47
100
AcDbSymbolTableRecord
100
AcDbLinetypeTableRecord
  2
MUR
 70
    64
  3
Solid line (for MAPS)
 72
    65
 73
     0
 40
0.0
  0
LTYPE
  5
48
100
AcDbSymbolTableRecord
100
AcDbLinetypeTableRecord
  2
SOM
 70
    64
  3
Solid line (for MAPS)
 72
    65
 73
     0
 40
0.0
  0
LTYPE
  5
49
100
AcDbSymbolTableRecord
100
AcDbLinetypeTableRecord
  2
COL
 70
    64
  3
Solid line (for MAPS)
 72
    65
 73
     0
 40
0.0
  0
LTYPE
  5
4A
100
AcDbSymbolTableRecord
100
AcDbLinetypeTableRecord
  2
LGN
 70
    64
  3
Solid line (for MAPS)
 72
    65
 73
     0
 40
0.0
  0
LTYPE
  5
4B
100
AcDbSymbolTableRecord
100
AcDbLinetypeTableRecord
  2
PNT
 70
    64
  3
Solid line (for MAPS)
 72
    65
 73
     0
 40
0.0
  0
ENDTAB
  0
TABLE
  2
LAYER
  5
4C
100
AcDbSymbolTable
 70
    44
  0
LAYER
  5
4D
100
AcDbSymbolTableRecord
100
AcDbLayerTableRecord
  2
leer
 70
     0
 62
     7
  6
CONTINUOUS
370
    -3
  0
LAYER
  5
4E
100
AcDbSymbolTableRecord
100
AcDbLayerTableRecord
  2
eg
 70
     0
 62
     7
  6
CONTINUOUS
370
     5
  0
LAYER
  5
4F
100
AcDbSymbolTableRecord
100
AcDbLayerTableRecord
  2
detail
 70
     0
 62
     7
  6
CONTINUOUS
370
     5
  0
LAYER
  5
50
100
AcDbSymbolTableRecord
100
AcDbLayerTableRecord
  2
detail
 70
     0
 62
     7
  6
CONTINUOUS
370
     5
  0
LAYER
  5
51
100
AcDbSymbolTableRecord
100
AcDbLayerTableRecord
  2
ug-kanalisation
 70
     0
 62
     7
  6
CONTINUOUS
370
    18
  0
LAYER
  5
52
100
AcDbSymbolTableRecord
100
AcDbLayerTableRecord
  2
Layer_6
 70
     0
 62
     7
  6
CONTINUOUS
370
    -3
  0
LAYER
  5
53
100
AcDbSymbolTableRecord
100
AcDbLayerTableRecord
  2
projekt
 70
     0
 62
     7
  6
CONTINUOUS
370
    -3
  0
LAYER
  5
54
100
AcDbSymbolTableRecord
100
AcDbLayerTableRecord
  2
projekt
 70
     0
 62
     7
  6
CONTINUOUS
370
    -3
  0
LAYER
  5
55
100
AcDbSymbolTableRecord
100
AcDbLayerTableRecord
  2
projekt
 70
     0
 62
     7
  6
CONTINUOUS
370
    -3
  0
LAYER
  5
56
100
AcDbSymbolTableRecord
100
AcDbLayerTableRecord
  2
EG
 70
     0
 62
     7
  6
CONTINUOUS
370
     5
  0
LAYER
  5
57
100
AcDbSymbolTableRecord
100
AcDbLayerTableRecord
  2
TEAM-DET1
 70
     0
 62
     5
  6
CONTINUOUS
370
    25
  0
LAYER
  5
58
100
AcDbSymbolTableRecord
100
AcDbLayerTableRecord
  2
TEAM-BODY
 70
     0
 62
     5
  6
CONTINUOUS
370
    25
  0
LAYER
  5
59
100
AcDbSymbolTableRecord
100
AcDbLayerTableRecord
  2
TEAM-INSP
 70
     0
 62
     5
  6
CONTINUOUS
370
    25
  0
LAYER
  5
5A
100
AcDbSymbolTableRecord
100
AcDbLayerTableRecord
  2
S_Einrichtung
 70
     0
 62
     5
  6
CONTINUOUS
370
    25
  0
LAYER
  5
5B
100
AcDbSymbolTableRecord
100
AcDbLayerTableRecord
  2
Layer_15
 70
     0
 62
     7
  6
CONTINUOUS
370
     5
  0
LAYER
  5
5C
100
AcDbSymbolTableRecord
100
AcDbLayerTableRecord
  2
schnitt
 70
     0
 62
     7
  6
CONTINUOUS
370
     5
  0
LAYER
  5
5D
100
AcDbSymbolTableRecord
100
AcDbLayerTableRecord
  2
Layer_3
 70
     0
 62
     7
  6
CONTINUOUS
370
     5
  0
LAYER
  5
5E
100
AcDbSymbolTableRecord
100
AcDbLayerTableRecord
  2
0
 70
     0
 62
     7
  6
CONTINUOUS
370
    -3
  0
LAYER
  5
5F
100
AcDbSymbolTableRecord
100
AcDbLayerTableRecord
  2
Schraffur
 70
     0
 62
     8
  6
CONTINUOUS
370
    -3
  0
LAYER
  5
60
100
AcDbSymbolTableRecord
100
AcDbLayerTableRecord
  2
Umriss02
 70
     0
 62
     1
  6
CONTINUOUS
370
    -3
  0
LAYER
  5
61
100
AcDbSymbolTableRecord
100
AcDbLayerTableRecord
  2
Umriss05
 70
     0
 62
     3
  6
CONTINUOUS
370
    -3
  0
LAYER
  5
62
100
AcDbSymbolTableRecord
100
AcDbLayerTableRecord
  2
Achse
 70
     0
 62
   104
  6
DASHDOT
370
    -3
  0
LAYER
  5
63
100
AcDbSymbolTableRecord
100
AcDbLayerTableRecord
  2
Averdeckt
 70
     0
 62
   130
  6
CADWORK_AC4
370
    -3
  0
LAYER
  5
64
100
AcDbSymbolTableRecord
100
AcDbLayerTableRecord
  2
Glas
 70
     0
 62
     4
  6
CONTINUOUS
370
    -3
  0
LAYER
  5
65
100
AcDbSymbolTableRecord
100
AcDbLayerTableRecord
  2
ACHSEN
 70
     0
 62
     7
  6
CONTINUOUS
370
    -3
  0
LAYER
  5
66
100
AcDbSymbolTableRecord
100
AcDbLayerTableRecord
  2
SCHNITTLINIE
 70
     0
 62
     5
  6
CONTINUOUS
370
    -3
  0
LAYER
  5
67
100
AcDbSymbolTableRecord
100
AcDbLayerTableRecord
  2
SCHRAFFUREN
 70
     0
 62
     7
  6
CONTINUOUS
370
    -3
  0
LAYER
  5
68
100
AcDbSymbolTableRecord
100
AcDbLayerTableRecord
  2
TEXTE
 70
     0
 62
     7
  6
CONTINUOUS
370
    -3
  0
LAYER
  5
69
100
AcDbSymbolTableRecord
100
AcDbLayerTableRecord
  2
SCHRAFFUR
 70
     0
 62
     3
  6
CONTINUOUS
370
    -3
  0
LAYER
  5
6A
100
AcDbSymbolTableRecord
100
AcDbLayerTableRecord
  2
ISOLATION
 70
     0
 62
     3
  6
CONTINUOUS
370
    -3
  0
LAYER
  5
6B
100
AcDbSymbolTableRecord
100
AcDbLayerTableRecord
  2
GLAS
 70
     0
 62
     3
  6
CONTINUOUS
370
    -3
  0
LAYER
  5
6C
100
AcDbSymbolTableRecord
100
AcDbLayerTableRecord
  2
ISOLIERGLAS
 70
     0
 62
     4
  6
CONTINUOUS
370
    -3
  0
LAYER
  5
6D
100
AcDbSymbolTableRecord
100
AcDbLayerTableRecord
  2
DOTS
 70
     0
 62
     2
  6
CONTINUOUS
370
    -3
  0
LAYER
  5
6E
100
AcDbSymbolTableRecord
100
AcDbLayerTableRecord
  2
GLASLEISTE
 70
     0
 62
     7
  6
CONTINUOUS
370
    -3
  0
LAYER
  5
6F
100
AcDbSymbolTableRecord
100
AcDbLayerTableRecord
  2
WEICHLIPPE
 70
     0
 62
     3
  6
CONTINUOUS
370
    -3
  0
LAYER
  5
70
100
AcDbSymbolTableRecord
100
AcDbLayerTableRecord
  2
GLASFALZEINLAGE
 70
     0
 62
     4
  6
CONTINUOUS
370
    -3
  0
LAYER
  5
71
100
AcDbSymbolTableRecord
100
AcDbLayerTableRecord
  2
FESTVERGLASUNGSDICHTUNG
 70
     0
 62
     3
  6
CONTINUOUS
370
    -3
  0
LAYER
  5
72
100
AcDbSymbolTableRecord
100
AcDbLayerTableRecord
  2
VERKLOTZUNG30
 70
     0
 62
     4
  6
CONTINUOUS
370
    -3
  0
LAYER
  5
73
100
AcDbSymbolTableRecord
100
AcDbLayerTableRecord
  2
RAHMENPROFIL
 70
     0
 62
     7
  6
CONTINUOUS
370
    -3
  0
LAYER
  5
74
100
AcDbSymbolTableRecord
100
AcDbLayerTableRecord
  2
RAHMENVERSTÄRKUNG
 70
     0
 62
     4
  6
CONTINUOUS
370
    -3
  0
LAYER
  5
75
100
AcDbSymbolTableRecord
100
AcDbLayerTableRecord
  2
lANDFLÄCHEN
 70
     0
 62
     7
  6
CONTINUOUS
370
    18
  0
LAYER
  5
76
100
AcDbSymbolTableRecord
100
AcDbLayerTableRecord
  2
Layer_42
 70
     0
 62
     7
  6
CONTINUOUS
370
     5
  0
LAYER
  5
77
100
AcDbSymbolTableRecord
100
AcDbLayerTableRecord
  2
Layer_43
 70
     0
 62
     7
  6
CONTINUOUS
370
     5
  0
LAYER
  5
78
100
AcDbSymbolTableRecord
100
AcDbLayerTableRecord
  2
Layer_44
 70
     0
 62
     7
  6
CONTINUOUS
370
     5
  0
ENDTAB
  0
TABLE
  2
VIEW
  5
79
100
AcDbSymbolTable
 70
     0
  0
ENDTAB
  0
TABLE
  2
UCS
  5
7A
100
AcDbSymbolTable
 70
     0
  0
ENDTAB
  0
TABLE
  2
APPID
  5
7B
100
AcDbSymbolTable
 70
     1
  0
APPID
  5
7C
100
AcDbSymbolTableRecord
100
AcDbRegAppTableRecord
  2
ACAD
 70
     0
  0
ENDTAB
  0
TABLE
  2
DIMSTYLE
  5
7D
100
AcDbSymbolTable
 70
     0
  0
ENDTAB
  0
TABLE
  2
BLOCK_RECORD
  5
7E
100
AcDbSymbolTable
 70
     0
  0
BLOCK_RECORD
  5
7F
100
AcDbSymbolTableRecord
100
AcDbBlockTableRecord
  2
*MODEL_SPACE
  0
BLOCK_RECORD
  5
80
100
AcDbSymbolTableRecord
100
AcDbBlockTableRecord
  2
*PAPER_SPACE
  0
BLOCK_RECORD
  5
81
100
AcDbSymbolTableRecord
100
AcDbBlockTableRecord
  2
CDWK_EXTR_0
  0
BLOCK_RECORD
  5
82
100
AcDbSymbolTableRecord
100
AcDbBlockTableRecord
  2
CDWK_EXTR_1D
  0
BLOCK_RECORD
  5
83
100
AcDbSymbolTableRecord
100
AcDbBlockTableRecord
  2
CDWK_EXTR_1G
  0
BLOCK_RECORD
  5
84
100
AcDbSymbolTableRecord
100
AcDbBlockTableRecord
  2
CDWK_EXTR_2
  0
BLOCK_RECORD
  5
85
100
AcDbSymbolTableRecord
100
AcDbBlockTableRecord
  2
CDWK_EXTR_3
  0
BLOCK_RECORD
  5
86
100
AcDbSymbolTableRecord
100
AcDbBlockTableRecord
  2
CDWK_EXTR_4
  0
BLOCK_RECORD
  5
87
100
AcDbSymbolTableRecord
100
AcDbBlockTableRecord
  2
CDWK_PTTYP0
  0
BLOCK_RECORD
  5
88
100
AcDbSymbolTableRecord
100
AcDbBlockTableRecord
  2
*X1
  0
BLOCK_RECORD
  5
89
100
AcDbSymbolTableRecord
100
AcDbBlockTableRecord
  2
*X2
  0
BLOCK_RECORD
  5
8A
100
AcDbSymbolTableRecord
100
AcDbBlockTableRecord
  2
*X3
  0
BLOCK_RECORD
  5
8B
100
AcDbSymbolTableRecord
100
AcDbBlockTableRecord
  2
*X4
  0
BLOCK_RECORD
  5
8C
100
AcDbSymbolTableRecord
100
AcDbBlockTableRecord
  2
*X5
  0
BLOCK_RECORD
  5
8D
100
AcDbSymbolTableRecord
100
AcDbBlockTableRecord
  2
*X6
  0
BLOCK_RECORD
  5
8E
100
AcDbSymbolTableRecord
100
AcDbBlockTableRecord
  2
*X7
  0
BLOCK_RECORD
  5
8F
100
AcDbSymbolTableRecord
100
AcDbBlockTableRecord
  2
*X8
  0
BLOCK_RECORD
  5
90
100
AcDbSymbolTableRecord
100
AcDbBlockTableRecord
  2
*X9
  0
BLOCK_RECORD
  5
91
100
AcDbSymbolTableRecord
100
AcDbBlockTableRecord
  2
*X10
  0
BLOCK_RECORD
  5
92
100
AcDbSymbolTableRecord
100
AcDbBlockTableRecord
  2
*X11
  0
BLOCK_RECORD
  5
93
100
AcDbSymbolTableRecord
100
AcDbBlockTableRecord
  2
*D1
  0
BLOCK_RECORD
  5
94
100
AcDbSymbolTableRecord
100
AcDbBlockTableRecord
  2
*D2
  0
BLOCK_RECORD
  5
95
100
AcDbSymbolTableRecord
100
AcDbBlockTableRecord
  2
*D3
  0
BLOCK_RECORD
  5
96
100
AcDbSymbolTableRecord
100
AcDbBlockTableRecord
  2
*D4
  0
BLOCK_RECORD
  5
97
100
AcDbSymbolTableRecord
100
AcDbBlockTableRecord
  2
*D5
  0
BLOCK_RECORD
  5
98
100
AcDbSymbolTableRecord
100
AcDbBlockTableRecord
  2
*D6
  0
BLOCK_RECORD
  5
99
100
AcDbSymbolTableRecord
100
AcDbBlockTableRecord
  2
*D7
  0
BLOCK_RECORD
  5
9A
100
AcDbSymbolTableRecord
100
AcDbBlockTableRecord
  2
*D8
  0
BLOCK_RECORD
  5
9B
100
AcDbSymbolTableRecord
100
AcDbBlockTableRecord
  2
*D9
  0
BLOCK_RECORD
  5
9C
100
AcDbSymbolTableRecord
100
AcDbBlockTableRecord
  2
*D10
  0
ENDTAB
  0
ENDSEC
  0
SECTION
  2
BLOCKS
  0
BLOCK
  5
9D
100
AcDbEntity
  8
0
100
AcDbBlockBegin
  2
*MODEL_SPACE
 70
     0
 10
0.0
 20
0.0
 30
0.0
  3
*MODEL_SPACE
  1

  0
ENDBLK
  5
9E
100
AcDbEntity
100
AcDbBlockEnd
  0
BLOCK
  5
9F
100
AcDbEntity
  8
0
100
AcDbBlockBegin
  2
*PAPER_SPACE
 70
     0
 10
0.0
 20
0.0
 30
0.0
  3
*PAPER_SPACE
  1

  0
ENDBLK
  5
A0
100
AcDbEntity
100
AcDbBlockEnd
  0
BLOCK
  5
A1
100
AcDbEntity
  8
0
100
AcDbBlockBegin
  2
CDWK_EXTR_0
 70
     0
 10
0.0
 20
0.0
 30
0.0
  3
CDWK_EXTR_0
  1

  4
Cadwork line-extremity
  0
LINE
  5
A2
100
AcDbEntity
  8
0
 62
     0
370
    -2
100
AcDbLine
 10
0.0
 20
0.0
 30
0.0
 11
2.0
 21
0.5
 31
0.0
  0
LINE
  5
A3
100
AcDbEntity
  8
0
 62
     0
370
    -2
100
AcDbLine
 10
0.0
 20
0.0
 30
0.0
 11
2.0
 21
-0.5
 31
0.0
  0
LINE
  5
A4
100
AcDbEntity
  8
0
 62
     0
370
    -2
100
AcDbLine
 10
2.0
 20
0.5
 30
0.0
 11
2.0
 21
-0.5
 31
0.0
  0
ENDBLK
  5
A5
100
AcDbEntity
100
AcDbBlockEnd
  0
BLOCK
  5
A6
100
AcDbEntity
  8
0
100
AcDbBlockBegin
  2
CDWK_EXTR_1D
 70
     0
 10
0.0
 20
0.0
 30
0.0
  3
CDWK_EXTR_1D
  1

  4
Cadwork line-extremity
  0
LINE
  5
A7
100
AcDbEntity
  8
0
 62
     0
370
    -2
100
AcDbLine
 10
0.0
 20
0.0
 30
0.0
 11
0.0
 21
1.0
 31
0.0
  0
LINE
  5
A8
100
AcDbEntity
  8
0
 62
     0
370
    -2
100
AcDbLine
 10
0.0
 20
1.0
 30
0.0
 11
0.5
 21
1.5
 31
0.0
  0
LINE
  5
A9
100
AcDbEntity
  8
0
 62
     0
370
    -2
100
AcDbLine
 10
0.5
 20
1.5
 30
0.0
 11
1.5
 21
1.5
 31
0.0
  0
ENDBLK
  5
AA
100
AcDbEntity
100
AcDbBlockEnd
  0
BLOCK
  5
AB
100
AcDbEntity
  8
0
100
AcDbBlockBegin
  2
CDWK_EXTR_1G
 70
     0
 10
0.0
 20
0.0
 30
0.0
  3
CDWK_EXTR_1G
  1

  4
Cadwork line-extremity
  0
LINE
  5
AC
100
AcDbEntity
  8
0
 62
     0
370
    -2
100
AcDbLine
 10
0.0
 20
0.0
 30
0.0
 11
0.0
 21
-1.0
 31
0.0
  0
LINE
  5
AD
100
AcDbEntity
  8
0
 62
     0
370
    -2
100
AcDbLine
 10
0.0
 20
-1.0
 30
0.0
 11
0.5
 21
-1.5
 31
0.0
  0
LINE
  5
AE
100
AcDbEntity
  8
0
 62
     0
370
    -2
100
AcDbLine
 10
0.5
 20
-1.5
 30
0.0
 11
1.5
 21
-1.5
 31
0.0
  0
ENDBLK
  5
AF
100
AcDbEntity
100
AcDbBlockEnd
  0
BLOCK
  5
B0
100
AcDbEntity
  8
0
100
AcDbBlockBegin
  2
CDWK_EXTR_2
 70
     0
 10
0.0
 20
0.0
 30
0.0
  3
CDWK_EXTR_2
  1

  4
Cadwork line-extremity
  0
SOLID
  5
B1
100
AcDbEntity
  8
0
 62
     0
100
AcDbTrace
 10
0.0
 20
0.0
 11
2.0
 21
0.5
 12
2.0
 22
-0.5
 13
2.0
 23
-0.5
  0
ENDBLK
  5
B2
100
AcDbEntity
100
AcDbBlockEnd
  0
BLOCK
  5
B3
100
AcDbEntity
  8
0
100
AcDbBlockBegin
  2
CDWK_EXTR_3
 70
     0
 10
0.0
 20
0.0
 30
0.0
  3
CDWK_EXTR_3
  1

  4
Cadwork line-extremity
  0
SOLID
  5
B4
100
AcDbEntity
  8
0
 62
     0
100
AcDbTrace
 10
0.0
 20
0.0
 11
2.0
 21
0.5
 12
2.0
 22
-0.5
 13
2.0
 23
-0.5
  0
LINE
  5
B5
100
AcDbEntity
  8
0
 62
     0
370
    -2
100
AcDbLine
 10
0.0
 20
1.0
 30
0.0
 11
0.0
 21
-1.0
 31
0.0
  0
ENDBLK
  5
B6
100
AcDbEntity
100
AcDbBlockEnd
  0
BLOCK
  5
B7
100
AcDbEntity
  8
0
100
AcDbBlockBegin
  2
CDWK_EXTR_4
 70
     0
 10
0.0
 20
0.0
 30
0.0
  3
CDWK_EXTR_4
  1

  4
Cadwork line-extremity
  0
HATCH
  5
B8
100
AcDbEntity
  8
0
 62
     0
370
    -2
100
AcDbHatch
 10
0.0
 20
0.0
 30
0.0
210
0.0
220
0.0
230
1.0
  2
SOLID
 70
     1
 71
     0
 91
        1
 92
        1
 93
        1
 72
     2
 10
0.0
 20
0.0
 40
0.5
 50
0.0
 51
360.0
 73
     1
 97
        0
 75
     0
 76
     1
 98
        1
 10
0.0
 20
0.0
  0
ENDBLK
  5
B9
100
AcDbEntity
100
AcDbBlockEnd
  0
BLOCK
  5
BA
100
AcDbEntity
  8
0
100
AcDbBlockBegin
  2
CDWK_PTTYP0
 70
     0
 10
0.0
 20
0.0
 30
0.0
  3
CDWK_PTTYP0
  1

  4
Cadwork point
  0
POINT
  5
BB
100
AcDbEntity
  8
0
 62
     0
100
AcDbPoint
 10
0.0
 20
0.0
 30
0.0
  0
ENDBLK
  5
BC
100
AcDbEntity
100
AcDbBlockEnd
  0
BLOCK
  5
BD
100
AcDbEntity
  8
detail
100
AcDbBlockBegin
  2
*X1
 70
     1
 10
0.0
 20
0.0
 30
0.0
  3
*X1
  1

  4
Cadwork hatch
  0
LINE
  5
BE
100
AcDbEntity
  8
detail
 62
   250
  6
CONTINUOUS
370
    -2
100
AcDbLine
 10
1.8403264
 20
-5.50125
 30
0.0
 11
1.8223264
 21
-5.50125
 31
0.0
  0
LINE
  5
BF
100
AcDbEntity
  8
detail
 62
   250
  6
CONTINUOUS
370
    -2
100
AcDbLine
 10
1.8403264
 20
-5.505
 30
0.0
 11
1.8223264
 21
-5.505
 31
0.0
  0
LINE
  5
C0
100
AcDbEntity
  8
detail
 62
   250
  6
CONTINUOUS
370
    -2
100
AcDbLine
 10
1.8403264
 20
-5.50875
 30
0.0
 11
1.8223264
 21
-5.50875
 31
0.0
  0
LINE
  5
C1
100
AcDbEntity
  8
detail
 62
   250
  6
CONTINUOUS
370
    -2
100
AcDbLine
 10
1.8403264
 20
-5.5125
 30
0.0
 11
1.8223264
 21
-5.5125
 31
0.0
  0
LINE
  5
C2
100
AcDbEntity
  8
detail
 62
   250
  6
CONTINUOUS
370
    -2
100
AcDbLine
 10
1.8403264
 20
-5.51625
 30
0.0
 11
1.8223264
 21
-5.51625
 31
0.0
  0
LINE
  5
C3
100
AcDbEntity
  8
detail
 62
   250
  6
CONTINUOUS
370
    -2
100
AcDbLine
 10
1.8403264
 20
-5.52
 30
0.0
 11
1.8223264
 21
-5.52
 31
0.0
  0
LINE
  5
C4
100
AcDbEntity
  8
detail
 62
   250
  6
CONTINUOUS
370
    -2
100
AcDbLine
 10
1.8403264
 20
-5.52375
 30
0.0
 11
1.8223264
 21
-5.52375
 31
0.0
  0
LINE
  5
C5
100
AcDbEntity
  8
detail
 62
   250
  6
CONTINUOUS
370
    -2
100
AcDbLine
 10
1.8403264
 20
-5.5275
 30
0.0
 11
1.8223264
 21
-5.5275
 31
0.0
  0
LINE
  5
C6
100
AcDbEntity
  8
detail
 62
   250
  6
CONTINUOUS
370
    -2
100
AcDbLine
 10
1.8403264
 20
-5.53125
 30
0.0
 11
1.8223264
 21
-5.53125
 31
0.0
  0
LINE
  5
C7
100
AcDbEntity
  8
detail
 62
   250
  6
CONTINUOUS
370
    -2
100
AcDbLine
 10
1.8403264
 20
-5.535
 30
0.0
 11
1.8223264
 21
-5.535
 31
0.0
  0
LINE
  5
C8
100
AcDbEntity
  8
detail
 62
   250
  6
CONTINUOUS
370
    -2
100
AcDbLine
 10
1.8403264
 20
-5.53875
 30
0.0
 11
1.8223264
 21
-5.53875
 31
0.0
  0
LINE
  5
C9
100
AcDbEntity
  8
detail
 62
   250
  6
CONTINUOUS
370
    -2
100
AcDbLine
 10
1.8403264
 20
-5.5425
 30
0.0
 11
1.8223264
 21
-5.5425
 31
0.0
  0
LINE
  5
CA
100
AcDbEntity
  8
detail
 62
   250
  6
CONTINUOUS
370
    -2
100
AcDbLine
 10
1.8403264
 20
-5.54625
 30
0.0
 11
1.8223264
 21
-5.54625
 31
0.0
  0
LINE
  5
CB
100
AcDbEntity
  8
detail
 62
   250
  6
CONTINUOUS
370
    -2
100
AcDbLine
 10
1.8403264
 20
-5.55
 30
0.0
 11
1.8223264
 21
-5.55
 31
0.0
  0
LINE
  5
CC
100
AcDbEntity
  8
detail
 62
   250
  6
CONTINUOUS
370
    -2
100
AcDbLine
 10
1.8403264
 20
-5.55375
 30
0.0
 11
1.8223264
 21
-5.55375
 31
0.0
  0
LINE
  5
CD
100
AcDbEntity
  8
detail
 62
   250
  6
CONTINUOUS
370
    -2
100
AcDbLine
 10
1.8313264
 20
-5.5575
 30
0.0
 11
1.8223264
 21
-5.5575
 31
0.0
  0
LINE
  5
CE
100
AcDbEntity
  8
detail
 62
   250
  6
CONTINUOUS
370
    -2
100
AcDbLine
 10
1.8313264
 20
-5.56125
 30
0.0
 11
1.8223264
 21
-5.56125
 31
0.0
  0
LINE
  5
CF
100
AcDbEntity
  8
detail
 62
   250
  6
CONTINUOUS
370
    -2
100
AcDbLine
 10
1.8313264
 20
-5.565
 30
0.0
 11
1.8223264
 21
-5.565
 31
0.0
  0
LINE
  5
D0
100
AcDbEntity
  8
detail
 62
   250
  6
CONTINUOUS
370
    -2
100
AcDbLine
 10
1.8313264
 20
-5.56875
 30
0.0
 11
1.8223264
 21
-5.56875
 31
0.0
  0
LINE
  5
D1
100
AcDbEntity
  8
detail
 62
   250
  6
CONTINUOUS
370
    -2
100
AcDbLine
 10
1.8313264
 20
-5.5725
 30
0.0
 11
1.8223264
 21
-5.5725
 31
0.0
  0
LINE
  5
D2
100
AcDbEntity
  8
detail
 62
   250
  6
CONTINUOUS
370
    -2
100
AcDbLine
 10
1.8313264
 20
-5.57625
 30
0.0
 11
1.8223264
 21
-5.57625
 31
0.0
  0
LINE
  5
D3
100
AcDbEntity
  8
detail
 62
   250
  6
CONTINUOUS
370
    -2
100
AcDbLine
 10
1.8313264
 20
-5.58
 30
0.0
 11
1.8223264
 21
-5.58
 31
0.0
  0
LINE
  5
D4
100
AcDbEntity
  8
detail
 62
   250
  6
CONTINUOUS
370
    -2
100
AcDbLine
 10
1.8313264
 20
-5.58375
 30
0.0
 11
1.8223264
 21
-5.58375
 31
0.0
  0
LINE
  5
D5
100
AcDbEntity
  8
detail
 62
   250
  6
CONTINUOUS
370
    -2
100
AcDbLine
 10
1.8313264
 20
-5.5875
 30
0.0
 11
1.8223264
 21
-5.5875
 31
0.0
  0
ENDBLK
  5
D6
100
AcDbEntity
100
AcDbBlockEnd
  0
BLOCK
  5
D7
100
AcDbEntity
  8
detail
100
AcDbBlockBegin
  2
*X2
 70
     1
 10
0.0
 20
0.0
 30
0.0
  3
*X2
  1

  4
Cadwork hatch
  0
LINE
  5
D8
100
AcDbEntity
  8
detail
 62
    16
  6
CONTINUOUS
370
    -2
100
AcDbLine
 10
1.8575
 20
-5.52623166
 30
0.0
 11
1.8575
 21
-5.53023166
 31
0.0
  0
LINE
  5
D9
100
AcDbEntity
  8
detail
 62
    16
  6
CONTINUOUS
370
    -2
100
AcDbLine
 10
1.86
 20
-5.52623166
 30
0.0
 11
1.86
 21
-5.53023166
 31
0.0
  0
LINE
  5
DA
100
AcDbEntity
  8
detail
 62
    16
  6
CONTINUOUS
370
    -2
100
AcDbLine
 10
1.8625
 20
-5.52623166
 30
0.0
 11
1.8625
 21
-5.53023166
 31
0.0
  0
LINE
  5
DB
100
AcDbEntity
  8
detail
 62
    16
  6
CONTINUOUS
370
    -2
100
AcDbLine
 10
1.865
 20
-5.52623166
 30
0.0
 11
1.865
 21
-5.53023166
 31
0.0
  0
LINE
  5
DC
100
AcDbEntity
  8
detail
 62
    16
  6
CONTINUOUS
370
    -2
100
AcDbLine
 10
1.8675
 20
-5.52623166
 30
0.0
 11
1.8675
 21
-5.53023166
 31
0.0
  0
LINE
  5
DD
100
AcDbEntity
  8
detail
 62
    16
  6
CONTINUOUS
370
    -2
100
AcDbLine
 10
1.87
 20
-5.52623166
 30
0.0
 11
1.87
 21
-5.53023166
 31
0.0
  0
LINE
  5
DE
100
AcDbEntity
  8
detail
 62
    16
  6
CONTINUOUS
370
    -2
100
AcDbLine
 10
1.8725
 20
-5.52623166
 30
0.0
 11
1.8725
 21
-5.53023166
 31
0.0
  0
LINE
  5
DF
100
AcDbEntity
  8
detail
 62
    16
  6
CONTINUOUS
370
    -2
100
AcDbLine
 10
1.875
 20
-5.52623166
 30
0.0
 11
1.875
 21
-5.53023166
 31
0.0
  0
LINE
  5
E0
100
AcDbEntity
  8
detail
 62
    16
  6
CONTINUOUS
370
    -2
100
AcDbLine
 10
1.8775
 20
-5.52623166
 30
0.0
 11
1.8775
 21
-5.53023166
 31
0.0
  0
LINE
  5
E1
100
AcDbEntity
  8
detail
 62
    16
  6
CONTINUOUS
370
    -2
100
AcDbLine
 10
1.88
 20
-5.52623166
 30
0.0
 11
1.88
 21
-5.53023166
 31
0.0
  0
LINE
  5
E2
100
AcDbEntity
  8
detail
 62
    16
  6
CONTINUOUS
370
    -2
100
AcDbLine
 10
1.8825
 20
-5.52623166
 30
0.0
 11
1.8825
 21
-5.53023166
 31
0.0
  0
LINE
  5
E3
100
AcDbEntity
  8
detail
 62
    16
  6
CONTINUOUS
370
    -2
100
AcDbLine
 10
1.885
 20
-5.52623166
 30
0.0
 11
1.885
 21
-5.53023166
 31
0.0
  0
LINE
  5
E4
100
AcDbEntity
  8
detail
 62
    16
  6
CONTINUOUS
370
    -2
100
AcDbLine
 10
1.8875
 20
-5.52623166
 30
0.0
 11
1.8875
 21
-5.53023166
 31
0.0
  0
LINE
  5
E5
100
AcDbEntity
  8
detail
 62
    16
  6
CONTINUOUS
370
    -2
100
AcDbLine
 10
1.89
 20
-5.52623166
 30
0.0
 11
1.89
 21
-5.53023166
 31
0.0
  0
LINE
  5
E6
100
AcDbEntity
  8
detail
 62
    16
  6
CONTINUOUS
370
    -2
100
AcDbLine
 10
1.8925
 20
-5.52623166
 30
0.0
 11
1.8925
 21
-5.53023166
 31
0.0
  0
LINE
  5
E7
100
AcDbEntity
  8
detail
 62
    16
  6
CONTINUOUS
370
    -2
100
AcDbLine
 10
1.895
 20
-5.52623166
 30
0.0
 11
1.895
 21
-5.53023166
 31
0.0
  0
LINE
  5
E8
100
AcDbEntity
  8
detail
 62
    16
  6
CONTINUOUS
370
    -2
100
AcDbLine
 10
1.8975
 20
-5.52623166
 30
0.0
 11
1.8975
 21
-5.53023166
 31
0.0
  0
LINE
  5
E9
100
AcDbEntity
  8
detail
 62
    16
  6
CONTINUOUS
370
    -2
100
AcDbLine
 10
1.9
 20
-5.52623166
 30
0.0
 11
1.9
 21
-5.53023166
 31
0.0
  0
LINE
  5
EA
100
AcDbEntity
  8
detail
 62
    16
  6
CONTINUOUS
370
    -2
100
AcDbLine
 10
1.9025
 20
-5.52623166
 30
0.0
 11
1.9025
 21
-5.53023166
 31
0.0
  0
LINE
  5
EB
100
AcDbEntity
  8
detail
 62
    16
  6
CONTINUOUS
370
    -2
100
AcDbLine
 10
1.905
 20
-5.52623166
 30
0.0
 11
1.905
 21
-5.53023166
 31
0.0
  0
LINE
  5
EC
100
AcDbEntity
  8
detail
 62
    16
  6
CONTINUOUS
370
    -2
100
AcDbLine
 10
1.9075
 20
-5.52623166
 30
0.0
 11
1.9075
 21
-5.53023166
 31
0.0
  0
LINE
  5
ED
100
AcDbEntity
  8
detail
 62
    16
  6
CONTINUOUS
370
    -2
100
AcDbLine
 10
1.91
 20
-5.52623166
 30
0.0
 11
1.91
 21
-5.53023166
 31
0.0
  0
LINE
  5
EE
100
AcDbEntity
  8
detail
 62
    16
  6
CONTINUOUS
370
    -2
100
AcDbLine
 10
1.9125
 20
-5.52623166
 30
0.0
 11
1.9125
 21
-5.53023166
 31
0.0
  0
LINE
  5
EF
100
AcDbEntity
  8
detail
 62
    16
  6
CONTINUOUS
370
    -2
100
AcDbLine
 10
1.915
 20
-5.52623166
 30
0.0
 11
1.915
 21
-5.53023166
 31
0.0
  0
LINE
  5
F0
100
AcDbEntity
  8
detail
 62
    16
  6
CONTINUOUS
370
    -2
100
AcDbLine
 10
1.9175
 20
-5.52623166
 30
0.0
 11
1.9175
 21
-5.53023166
 31
0.0
  0
LINE
  5
F1
100
AcDbEntity
  8
detail
 62
    16
  6
CONTINUOUS
370
    -2
100
AcDbLine
 10
1.92
 20
-5.52623166
 30
0.0
 11
1.92
 21
-5.53023166
 31
0.0
  0
LINE
  5
F2
100
AcDbEntity
  8
detail
 62
    16
  6
CONTINUOUS
370
    -2
100
AcDbLine
 10
1.9225
 20
-5.52623166
 30
0.0
 11
1.9225
 21
-5.53023166
 31
0.0
  0
LINE
  5
F3
100
AcDbEntity
  8
detail
 62
    16
  6
CONTINUOUS
370
    -2
100
AcDbLine
 10
1.925
 20
-5.52623166
 30
0.0
 11
1.925
 21
-5.53023166
 31
0.0
  0
LINE
  5
F4
100
AcDbEntity
  8
detail
 62
    16
  6
CONTINUOUS
370
    -2
100
AcDbLine
 10
1.9275
 20
-5.52623166
 30
0.0
 11
1.9275
 21
-5.53023166
 31
0.0
  0
LINE
  5
F5
100
AcDbEntity
  8
detail
 62
    16
  6
CONTINUOUS
370
    -2
100
AcDbLine
 10
1.93
 20
-5.52623166
 30
0.0
 11
1.93
 21
-5.53023166
 31
0.0
  0
ENDBLK
  5
F6
100
AcDbEntity
100
AcDbBlockEnd
  0
BLOCK
  5
F7
100
AcDbEntity
  8
detail
100
AcDbBlockBegin
  2
*X3
 70
     1
 10
0.0
 20
0.0
 30
0.0
  3
*X3
  1

  4
Cadwork hatch
  0
LINE
  5
F8
100
AcDbEntity
  8
detail
 62
    16
  6
CONTINUOUS
370
    -2
100
AcDbLine
 10
1.84489207
 20
-5.53023166
 30
0.0
 11
1.8403264
 21
-5.53479732
 31
0.0
  0
LINE
  5
F9
100
AcDbEntity
  8
detail
 62
    16
  6
CONTINUOUS
370
    -2
100
AcDbLine
 10
1.85196314
 20
-5.53023166
 30
0.0
 11
1.8403264
 21
-5.54186839
 31
0.0
  0
LINE
  5
FA
100
AcDbEntity
  8
detail
 62
    16
  6
CONTINUOUS
370
    -2
100
AcDbLine
 10
1.85903421
 20
-5.53023166
 30
0.0
 11
1.8403264
 21
-5.54893946
 31
0.0
  0
LINE
  5
FB
100
AcDbEntity
  8
detail
 62
    16
  6
CONTINUOUS
370
    -2
100
AcDbLine
 10
1.86610528
 20
-5.53023166
 30
0.0
 11
1.84210528
 21
-5.55423166
 31
0.0
  0
LINE
  5
FC
100
AcDbEntity
  8
detail
 62
    16
  6
CONTINUOUS
370
    -2
100
AcDbLine
 10
1.87317634
 20
-5.53023166
 30
0.0
 11
1.84917634
 21
-5.55423166
 31
0.0
  0
LINE
  5
FD
100
AcDbEntity
  8
detail
 62
    16
  6
CONTINUOUS
370
    -2
100
AcDbLine
 10
1.88024741
 20
-5.53023166
 30
0.0
 11
1.85624741
 21
-5.55423166
 31
0.0
  0
LINE
  5
FE
100
AcDbEntity
  8
detail
 62
    16
  6
CONTINUOUS
370
    -2
100
AcDbLine
 10
1.88731848
 20
-5.53023166
 30
0.0
 11
1.86331848
 21
-5.55423166
 31
0.0
  0
LINE
  5
FF
100
AcDbEntity
  8
detail
 62
    16
  6
CONTINUOUS
370
    -2
100
AcDbLine
 10
1.89438955
 20
-5.53023166
 30
0.0
 11
1.87038955
 21
-5.55423166
 31
0.0
  0
LINE
  5
100
100
AcDbEntity
  8
detail
 62
    16
  6
CONTINUOUS
370
    -2
100
AcDbLine
 10
1.90146061
 20
-5.53023166
 30
0.0
 11
1.87746061
 21
-5.55423166
 31
0.0
  0
LINE
  5
101
100
AcDbEntity
  8
detail
 62
    16
  6
CONTINUOUS
370
    -2
100
AcDbLine
 10
1.90853168
 20
-5.53023166
 30
0.0
 11
1.88453168
 21
-5.55423166
 31
0.0
  0
LINE
  5
102
100
AcDbEntity
  8
detail
 62
    16
  6
CONTINUOUS
370
    -2
100
AcDbLine
 10
1.91560275
 20
-5.53023166
 30
0.0
 11
1.89160275
 21
-5.55423166
 31
0.0
  0
LINE
  5
103
100
AcDbEntity
  8
detail
 62
    16
  6
CONTINUOUS
370
    -2
100
AcDbLine
 10
1.92267382
 20
-5.53023166
 30
0.0
 11
1.89867382
 21
-5.55423166
 31
0.0
  0
LINE
  5
104
100
AcDbEntity
  8
detail
 62
    16
  6
CONTINUOUS
370
    -2
100
AcDbLine
 10
1.92974489
 20
-5.53023166
 30
0.0
 11
1.90574489
 21
-5.55423166
 31
0.0
  0
LINE
  5
105
100
AcDbEntity
  8
detail
 62
    16
  6
CONTINUOUS
370
    -2
100
AcDbLine
 10
1.9307099
 20
-5.53633771
 30
0.0
 11
1.91281595
 21
-5.55423166
 31
0.0
  0
LINE
  5
106
100
AcDbEntity
  8
detail
 62
    16
  6
CONTINUOUS
370
    -2
100
AcDbLine
 10
1.9307099
 20
-5.54340878
 30
0.0
 11
1.91988702
 21
-5.55423166
 31
0.0
  0
LINE
  5
107
100
AcDbEntity
  8
detail
 62
    16
  6
CONTINUOUS
370
    -2
100
AcDbLine
 10
1.9307099
 20
-5.55047985
 30
0.0
 11
1.92695809
 21
-5.55423166
 31
0.0
  0
LINE
  5
108
100
AcDbEntity
  8
detail
 62
    16
  6
CONTINUOUS
370
    -2
100
AcDbLine
 10
1.8403264
 20
-5.55263701
 30
0.0
 11
1.84192105
 21
-5.55423166
 31
0.0
  0
LINE
  5
109
100
AcDbEntity
  8
detail
 62
    16
  6
CONTINUOUS
370
    -2
100
AcDbLine
 10
1.8403264
 20
-5.54556594
 30
0.0
 11
1.84899212
 21
-5.55423166
 31
0.0
  0
LINE
  5
10A
100
AcDbEntity
  8
detail
 62
    16
  6
CONTINUOUS
370
    -2
100
AcDbLine
 10
1.8403264
 20
-5.53849487
 30
0.0
 11
1.85606319
 21
-5.55423166
 31
0.0
  0
LINE
  5
10B
100
AcDbEntity
  8
detail
 62
    16
  6
CONTINUOUS
370
    -2
100
AcDbLine
 10
1.8403264
 20
-5.5314238
 30
0.0
 11
1.86313426
 21
-5.55423166
 31
0.0
  0
LINE
  5
10C
100
AcDbEntity
  8
detail
 62
    16
  6
CONTINUOUS
370
    -2
100
AcDbLine
 10
1.84620533
 20
-5.53023166
 30
0.0
 11
1.87020533
 21
-5.55423166
 31
0.0
  0
LINE
  5
10D
100
AcDbEntity
  8
detail
 62
    16
  6
CONTINUOUS
370
    -2
100
AcDbLine
 10
1.85327639
 20
-5.53023166
 30
0.0
 11
1.87727639
 21
-5.55423166
 31
0.0
  0
LINE
  5
10E
100
AcDbEntity
  8
detail
 62
    16
  6
CONTINUOUS
370
    -2
100
AcDbLine
 10
1.86034746
 20
-5.53023166
 30
0.0
 11
1.88434746
 21
-5.55423166
 31
0.0
  0
LINE
  5
10F
100
AcDbEntity
  8
detail
 62
    16
  6
CONTINUOUS
370
    -2
100
AcDbLine
 10
1.86741853
 20
-5.53023166
 30
0.0
 11
1.89141853
 21
-5.55423166
 31
0.0
  0
LINE
  5
110
100
AcDbEntity
  8
detail
 62
    16
  6
CONTINUOUS
370
    -2
100
AcDbLine
 10
1.8744896
 20
-5.53023166
 30
0.0
 11
1.8984896
 21
-5.55423166
 31
0.0
  0
LINE
  5
111
100
AcDbEntity
  8
detail
 62
    16
  6
CONTINUOUS
370
    -2
100
AcDbLine
 10
1.88156066
 20
-5.53023166
 30
0.0
 11
1.90556066
 21
-5.55423166
 31
0.0
  0
LINE
  5
112
100
AcDbEntity
  8
detail
 62
    16
  6
CONTINUOUS
370
    -2
100
AcDbLine
 10
1.88863173
 20
-5.53023166
 30
0.0
 11
1.91263173
 21
-5.55423166
 31
0.0
  0
LINE
  5
113
100
AcDbEntity
  8
detail
 62
    16
  6
CONTINUOUS
370
    -2
100
AcDbLine
 10
1.8957028
 20
-5.53023166
 30
0.0
 11
1.9197028
 21
-5.55423166
 31
0.0
  0
LINE
  5
114
100
AcDbEntity
  8
detail
 62
    16
  6
CONTINUOUS
370
    -2
100
AcDbLine
 10
1.90277387
 20
-5.53023166
 30
0.0
 11
1.92677387
 21
-5.55423166
 31
0.0
  0
LINE
  5
115
100
AcDbEntity
  8
detail
 62
    16
  6
CONTINUOUS
370
    -2
100
AcDbLine
 10
1.90984494
 20
-5.53023166
 30
0.0
 11
1.9307099
 21
-5.55109662
 31
0.0
  0
LINE
  5
116
100
AcDbEntity
  8
detail
 62
    16
  6
CONTINUOUS
370
    -2
100
AcDbLine
 10
1.916916
 20
-5.53023166
 30
0.0
 11
1.9307099
 21
-5.54402555
 31
0.0
  0
LINE
  5
117
100
AcDbEntity
  8
detail
 62
    16
  6
CONTINUOUS
370
    -2
100
AcDbLine
 10
1.92398707
 20
-5.53023166
 30
0.0
 11
1.9307099
 21
-5.53695448
 31
0.0
  0
ENDBLK
  5
118
100
AcDbEntity
100
AcDbBlockEnd
  0
BLOCK
  5
119
100
AcDbEntity
  8
detail
100
AcDbBlockBegin
  2
*X4
 70
     1
 10
0.0
 20
0.0
 30
0.0
  3
*X4
  1

  4
Cadwork hatch
  0
LINE
  5
11A
100
AcDbEntity
  8
detail
 62
    16
  6
CONTINUOUS
370
    -2
100
AcDbLine
 10
1.8562264
 20
-5.59402187
 30
0.0
 11
1.8557264
 21
-5.59402187
 31
0.0
  0
LINE
  5
11B
100
AcDbEntity
  8
detail
 62
    16
  6
CONTINUOUS
370
    -2
100
AcDbLine
 10
1.8562264
 20
-5.59642687
 30
0.0
 11
1.8557264
 21
-5.59642687
 31
0.0
  0
LINE
  5
11C
100
AcDbEntity
  8
detail
 62
    16
  6
CONTINUOUS
370
    -2
100
AcDbLine
 10
1.8562264
 20
-5.59883187
 30
0.0
 11
1.8557264
 21
-5.59883187
 31
0.0
  0
LINE
  5
11D
100
AcDbEntity
  8
detail
 62
    16
  6
CONTINUOUS
370
    -2
100
AcDbLine
 10
1.8562264
 20
-5.60123686
 30
0.0
 11
1.8557264
 21
-5.60123686
 31
0.0
  0
LINE
  5
11E
100
AcDbEntity
  8
detail
 62
    16
  6
CONTINUOUS
370
    -2
100
AcDbLine
 10
1.8562264
 20
-5.60364186
 30
0.0
 11
1.8557264
 21
-5.60364186
 31
0.0
  0
LINE
  5
11F
100
AcDbEntity
  8
detail
 62
    16
  6
CONTINUOUS
370
    -2
100
AcDbLine
 10
1.8562264
 20
-5.60604686
 30
0.0
 11
1.8557264
 21
-5.60604686
 31
0.0
  0
LINE
  5
120
100
AcDbEntity
  8
detail
 62
    16
  6
CONTINUOUS
370
    -2
100
AcDbLine
 10
1.8562264
 20
-5.60845185
 30
0.0
 11
1.8557264
 21
-5.60845185
 31
0.0
  0
LINE
  5
121
100
AcDbEntity
  8
detail
 62
    16
  6
CONTINUOUS
370
    -2
100
AcDbLine
 10
1.8562264
 20
-5.61085685
 30
0.0
 11
1.8557264
 21
-5.61085685
 31
0.0
  0
LINE
  5
122
100
AcDbEntity
  8
detail
 62
    16
  6
CONTINUOUS
370
    -2
100
AcDbLine
 10
1.8562264
 20
-5.61326185
 30
0.0
 11
1.8557264
 21
-5.61326185
 31
0.0
  0
LINE
  5
123
100
AcDbEntity
  8
detail
 62
    16
  6
CONTINUOUS
370
    -2
100
AcDbLine
 10
1.8562264
 20
-5.61566684
 30
0.0
 11
1.8557264
 21
-5.61566684
 31
0.0
  0
LINE
  5
124
100
AcDbEntity
  8
detail
 62
    16
  6
CONTINUOUS
370
    -2
100
AcDbLine
 10
1.8562264
 20
-5.61807184
 30
0.0
 11
1.8557264
 21
-5.61807184
 31
0.0
  0
LINE
  5
125
100
AcDbEntity
  8
detail
 62
    16
  6
CONTINUOUS
370
    -2
100
AcDbLine
 10
1.8562264
 20
-5.62047684
 30
0.0
 11
1.8557264
 21
-5.62047684
 31
0.0
  0
LINE
  5
126
100
AcDbEntity
  8
detail
 62
    16
  6
CONTINUOUS
370
    -2
100
AcDbLine
 10
1.8562264
 20
-5.62288183
 30
0.0
 11
1.8557264
 21
-5.62288183
 31
0.0
  0
LINE
  5
127
100
AcDbEntity
  8
detail
 62
    16
  6
CONTINUOUS
370
    -2
100
AcDbLine
 10
1.8562264
 20
-5.62528683
 30
0.0
 11
1.8557264
 21
-5.62528683
 31
0.0
  0
LINE
  5
128
100
AcDbEntity
  8
detail
 62
    16
  6
CONTINUOUS
370
    -2
100
AcDbLine
 10
1.8562264
 20
-5.62769183
 30
0.0
 11
1.8557264
 21
-5.62769183
 31
0.0
  0
LINE
  5
129
100
AcDbEntity
  8
detail
 62
    16
  6
CONTINUOUS
370
    -2
100
AcDbLine
 10
1.8562264
 20
-5.63009682
 30
0.0
 11
1.8557264
 21
-5.63009682
 31
0.0
  0
LINE
  5
12A
100
AcDbEntity
  8
detail
 62
    16
  6
CONTINUOUS
370
    -2
100
AcDbLine
 10
1.8562264
 20
-5.63250182
 30
0.0
 11
1.8557264
 21
-5.63250182
 31
0.0
  0
LINE
  5
12B
100
AcDbEntity
  8
detail
 62
    16
  6
CONTINUOUS
370
    -2
100
AcDbLine
 10
1.8562264
 20
-5.63490682
 30
0.0
 11
1.8557264
 21
-5.63490682
 31
0.0
  0
LINE
  5
12C
100
AcDbEntity
  8
detail
 62
    16
  6
CONTINUOUS
370
    -2
100
AcDbLine
 10
1.8562264
 20
-5.63731181
 30
0.0
 11
1.8557264
 21
-5.63731181
 31
0.0
  0
LINE
  5
12D
100
AcDbEntity
  8
detail
 62
    16
  6
CONTINUOUS
370
    -2
100
AcDbLine
 10
1.8562264
 20
-5.63971681
 30
0.0
 11
1.8557264
 21
-5.63971681
 31
0.0
  0
ENDBLK
  5
12E
100
AcDbEntity
100
AcDbBlockEnd
  0
BLOCK
  5
12F
100
AcDbEntity
  8
detail
100
AcDbBlockBegin
  2
*X5
 70
     1
 10
0.0
 20
0.0
 30
0.0
  3
*X5
  1

  4
Cadwork hatch
  0
LINE
  5
130
100
AcDbEntity
  8
detail
 62
    16
  6
CONTINUOUS
370
    -2
100
AcDbLine
 10
1.85468133
 20
-5.59402187
 30
0.0
 11
1.85418133
 21
-5.59402187
 31
0.0
  0
LINE
  5
131
100
AcDbEntity
  8
detail
 62
    16
  6
CONTINUOUS
370
    -2
100
AcDbLine
 10
1.85468133
 20
-5.59642687
 30
0.0
 11
1.85418133
 21
-5.59642687
 31
0.0
  0
LINE
  5
132
100
AcDbEntity
  8
detail
 62
    16
  6
CONTINUOUS
370
    -2
100
AcDbLine
 10
1.85468133
 20
-5.59883187
 30
0.0
 11
1.85418133
 21
-5.59883187
 31
0.0
  0
LINE
  5
133
100
AcDbEntity
  8
detail
 62
    16
  6
CONTINUOUS
370
    -2
100
AcDbLine
 10
1.85468133
 20
-5.60123686
 30
0.0
 11
1.85418133
 21
-5.60123686
 31
0.0
  0
LINE
  5
134
100
AcDbEntity
  8
detail
 62
    16
  6
CONTINUOUS
370
    -2
100
AcDbLine
 10
1.85468133
 20
-5.60364186
 30
0.0
 11
1.85418133
 21
-5.60364186
 31
0.0
  0
LINE
  5
135
100
AcDbEntity
  8
detail
 62
    16
  6
CONTINUOUS
370
    -2
100
AcDbLine
 10
1.85468133
 20
-5.60604686
 30
0.0
 11
1.85418133
 21
-5.60604686
 31
0.0
  0
LINE
  5
136
100
AcDbEntity
  8
detail
 62
    16
  6
CONTINUOUS
370
    -2
100
AcDbLine
 10
1.85468133
 20
-5.60845185
 30
0.0
 11
1.85418133
 21
-5.60845185
 31
0.0
  0
LINE
  5
137
100
AcDbEntity
  8
detail
 62
    16
  6
CONTINUOUS
370
    -2
100
AcDbLine
 10
1.85468133
 20
-5.61085685
 30
0.0
 11
1.85418133
 21
-5.61085685
 31
0.0
  0
LINE
  5
138
100
AcDbEntity
  8
detail
 62
    16
  6
CONTINUOUS
370
    -2
100
AcDbLine
 10
1.85468133
 20
-5.61326185
 30
0.0
 11
1.85418133
 21
-5.61326185
 31
0.0
  0
LINE
  5
139
100
AcDbEntity
  8
detail
 62
    16
  6
CONTINUOUS
370
    -2
100
AcDbLine
 10
1.85468133
 20
-5.61566684
 30
0.0
 11
1.85418133
 21
-5.61566684
 31
0.0
  0
LINE
  5
13A
100
AcDbEntity
  8
detail
 62
    16
  6
CONTINUOUS
370
    -2
100
AcDbLine
 10
1.85468133
 20
-5.61807184
 30
0.0
 11
1.85418133
 21
-5.61807184
 31
0.0
  0
LINE
  5
13B
100
AcDbEntity
  8
detail
 62
    16
  6
CONTINUOUS
370
    -2
100
AcDbLine
 10
1.85468133
 20
-5.62047684
 30
0.0
 11
1.85418133
 21
-5.62047684
 31
0.0
  0
LINE
  5
13C
100
AcDbEntity
  8
detail
 62
    16
  6
CONTINUOUS
370
    -2
100
AcDbLine
 10
1.85468133
 20
-5.62288183
 30
0.0
 11
1.85418133
 21
-5.62288183
 31
0.0
  0
LINE
  5
13D
100
AcDbEntity
  8
detail
 62
    16
  6
CONTINUOUS
370
    -2
100
AcDbLine
 10
1.85468133
 20
-5.62528683
 30
0.0
 11
1.85418133
 21
-5.62528683
 31
0.0
  0
LINE
  5
13E
100
AcDbEntity
  8
detail
 62
    16
  6
CONTINUOUS
370
    -2
100
AcDbLine
 10
1.85468133
 20
-5.62769183
 30
0.0
 11
1.85418133
 21
-5.62769183
 31
0.0
  0
LINE
  5
13F
100
AcDbEntity
  8
detail
 62
    16
  6
CONTINUOUS
370
    -2
100
AcDbLine
 10
1.85468133
 20
-5.63009682
 30
0.0
 11
1.85418133
 21
-5.63009682
 31
0.0
  0
LINE
  5
140
100
AcDbEntity
  8
detail
 62
    16
  6
CONTINUOUS
370
    -2
100
AcDbLine
 10
1.85468133
 20
-5.63250182
 30
0.0
 11
1.85418133
 21
-5.63250182
 31
0.0
  0
LINE
  5
141
100
AcDbEntity
  8
detail
 62
    16
  6
CONTINUOUS
370
    -2
100
AcDbLine
 10
1.85468133
 20
-5.63490682
 30
0.0
 11
1.85418133
 21
-5.63490682
 31
0.0
  0
LINE
  5
142
100
AcDbEntity
  8
detail
 62
    16
  6
CONTINUOUS
370
    -2
100
AcDbLine
 10
1.85468133
 20
-5.63731181
 30
0.0
 11
1.85418133
 21
-5.63731181
 31
0.0
  0
LINE
  5
143
100
AcDbEntity
  8
detail
 62
    16
  6
CONTINUOUS
370
    -2
100
AcDbLine
 10
1.85468133
 20
-5.63971681
 30
0.0
 11
1.85418133
 21
-5.63971681
 31
0.0
  0
ENDBLK
  5
144
100
AcDbEntity
100
AcDbBlockEnd
  0
BLOCK
  5
145
100
AcDbEntity
  8
detail
100
AcDbBlockBegin
  2
*X6
 70
     1
 10
0.0
 20
0.0
 30
0.0
  3
*X6
  1

  4
Cadwork hatch
  0
LINE
  5
146
100
AcDbEntity
  8
detail
 62
    16
  6
CONTINUOUS
370
    -2
100
AcDbLine
 10
1.85313626
 20
-5.59402187
 30
0.0
 11
1.85263626
 21
-5.59402187
 31
0.0
  0
LINE
  5
147
100
AcDbEntity
  8
detail
 62
    16
  6
CONTINUOUS
370
    -2
100
AcDbLine
 10
1.85313626
 20
-5.59642687
 30
0.0
 11
1.85263626
 21
-5.59642687
 31
0.0
  0
LINE
  5
148
100
AcDbEntity
  8
detail
 62
    16
  6
CONTINUOUS
370
    -2
100
AcDbLine
 10
1.85313626
 20
-5.59883187
 30
0.0
 11
1.85263626
 21
-5.59883187
 31
0.0
  0
LINE
  5
149
100
AcDbEntity
  8
detail
 62
    16
  6
CONTINUOUS
370
    -2
100
AcDbLine
 10
1.85313626
 20
-5.60123686
 30
0.0
 11
1.85263626
 21
-5.60123686
 31
0.0
  0
LINE
  5
14A
100
AcDbEntity
  8
detail
 62
    16
  6
CONTINUOUS
370
    -2
100
AcDbLine
 10
1.85313626
 20
-5.60364186
 30
0.0
 11
1.85263626
 21
-5.60364186
 31
0.0
  0
LINE
  5
14B
100
AcDbEntity
  8
detail
 62
    16
  6
CONTINUOUS
370
    -2
100
AcDbLine
 10
1.85313626
 20
-5.60604686
 30
0.0
 11
1.85263626
 21
-5.60604686
 31
0.0
  0
LINE
  5
14C
100
AcDbEntity
  8
detail
 62
    16
  6
CONTINUOUS
370
    -2
100
AcDbLine
 10
1.85313626
 20
-5.60845185
 30
0.0
 11
1.85263626
 21
-5.60845185
 31
0.0
  0
LINE
  5
14D
100
AcDbEntity
  8
detail
 62
    16
  6
CONTINUOUS
370
    -2
100
AcDbLine
 10
1.85313626
 20
-5.61085685
 30
0.0
 11
1.85263626
 21
-5.61085685
 31
0.0
  0
LINE
  5
14E
100
AcDbEntity
  8
detail
 62
    16
  6
CONTINUOUS
370
    -2
100
AcDbLine
 10
1.85313626
 20
-5.61326185
 30
0.0
 11
1.85263626
 21
-5.61326185
 31
0.0
  0
LINE
  5
14F
100
AcDbEntity
  8
detail
 62
    16
  6
CONTINUOUS
370
    -2
100
AcDbLine
 10
1.85313626
 20
-5.61566684
 30
0.0
 11
1.85263626
 21
-5.61566684
 31
0.0
  0
LINE
  5
150
100
AcDbEntity
  8
detail
 62
    16
  6
CONTINUOUS
370
    -2
100
AcDbLine
 10
1.85313626
 20
-5.61807184
 30
0.0
 11
1.85263626
 21
-5.61807184
 31
0.0
  0
LINE
  5
151
100
AcDbEntity
  8
detail
 62
    16
  6
CONTINUOUS
370
    -2
100
AcDbLine
 10
1.85313626
 20
-5.62047684
 30
0.0
 11
1.85263626
 21
-5.62047684
 31
0.0
  0
LINE
  5
152
100
AcDbEntity
  8
detail
 62
    16
  6
CONTINUOUS
370
    -2
100
AcDbLine
 10
1.85313626
 20
-5.62288183
 30
0.0
 11
1.85263626
 21
-5.62288183
 31
0.0
  0
LINE
  5
153
100
AcDbEntity
  8
detail
 62
    16
  6
CONTINUOUS
370
    -2
100
AcDbLine
 10
1.85313626
 20
-5.62528683
 30
0.0
 11
1.85263626
 21
-5.62528683
 31
0.0
  0
LINE
  5
154
100
AcDbEntity
  8
detail
 62
    16
  6
CONTINUOUS
370
    -2
100
AcDbLine
 10
1.85313626
 20
-5.62769183
 30
0.0
 11
1.85263626
 21
-5.62769183
 31
0.0
  0
LINE
  5
155
100
AcDbEntity
  8
detail
 62
    16
  6
CONTINUOUS
370
    -2
100
AcDbLine
 10
1.85313626
 20
-5.63009682
 30
0.0
 11
1.85263626
 21
-5.63009682
 31
0.0
  0
LINE
  5
156
100
AcDbEntity
  8
detail
 62
    16
  6
CONTINUOUS
370
    -2
100
AcDbLine
 10
1.85313626
 20
-5.63250182
 30
0.0
 11
1.85263626
 21
-5.63250182
 31
0.0
  0
LINE
  5
157
100
AcDbEntity
  8
detail
 62
    16
  6
CONTINUOUS
370
    -2
100
AcDbLine
 10
1.85313626
 20
-5.63490682
 30
0.0
 11
1.85263626
 21
-5.63490682
 31
0.0
  0
LINE
  5
158
100
AcDbEntity
  8
detail
 62
    16
  6
CONTINUOUS
370
    -2
100
AcDbLine
 10
1.85313626
 20
-5.63731181
 30
0.0
 11
1.85263626
 21
-5.63731181
 31
0.0
  0
LINE
  5
159
100
AcDbEntity
  8
detail
 62
    16
  6
CONTINUOUS
370
    -2
100
AcDbLine
 10
1.85313626
 20
-5.63971681
 30
0.0
 11
1.85263626
 21
-5.63971681
 31
0.0
  0
ENDBLK
  5
15A
100
AcDbEntity
100
AcDbBlockEnd
  0
BLOCK
  5
15B
100
AcDbEntity
  8
detail
100
AcDbBlockBegin
  2
*X7
 70
     1
 10
0.0
 20
0.0
 30
0.0
  3
*X7
  1

  4
Cadwork hatch
  0
LINE
  5
15C
100
AcDbEntity
  8
detail
 62
    16
  6
CONTINUOUS
370
    -2
100
AcDbLine
 10
1.84125792
 20
-5.49851047
 30
0.0
 11
1.8403264
 21
-5.49944198
 31
0.0
  0
LINE
  5
15D
100
AcDbEntity
  8
detail
 62
    16
  6
CONTINUOUS
370
    -2
100
AcDbLine
 10
1.84832898
 20
-5.49851047
 30
0.0
 11
1.8403264
 21
-5.50651305
 31
0.0
  0
LINE
  5
15E
100
AcDbEntity
  8
detail
 62
    16
  6
CONTINUOUS
370
    -2
100
AcDbLine
 10
1.8553264
 20
-5.49858412
 30
0.0
 11
1.84467887
 21
-5.50923166
 31
0.0
  0
LINE
  5
15F
100
AcDbEntity
  8
detail
 62
    16
  6
CONTINUOUS
370
    -2
100
AcDbLine
 10
1.8553264
 20
-5.50565519
 30
0.0
 11
1.85174994
 21
-5.50923166
 31
0.0
  0
ENDBLK
  5
160
100
AcDbEntity
100
AcDbBlockEnd
  0
BLOCK
  5
161
100
AcDbEntity
  8
detail
100
AcDbBlockBegin
  2
*X8
 70
     1
 10
0.0
 20
0.0
 30
0.0
  3
*X8
  1

  4
Cadwork hatch
  0
LINE
  5
162
100
AcDbEntity
  8
detail
 62
    16
  6
CONTINUOUS
370
    -2
100
AcDbLine
 10
1.85313626
 20
-5.64186276
 30
0.0
 11
1.85263626
 21
-5.64186276
 31
0.0
  0
LINE
  5
163
100
AcDbEntity
  8
detail
 62
    16
  6
CONTINUOUS
370
    -2
100
AcDbLine
 10
1.85313626
 20
-5.64355498
 30
0.0
 11
1.85263626
 21
-5.64355498
 31
0.0
  0
LINE
  5
164
100
AcDbEntity
  8
detail
 62
    16
  6
CONTINUOUS
370
    -2
100
AcDbLine
 10
1.85313626
 20
-5.6452472
 30
0.0
 11
1.85263626
 21
-5.6452472
 31
0.0
  0
LINE
  5
165
100
AcDbEntity
  8
detail
 62
    16
  6
CONTINUOUS
370
    -2
100
AcDbLine
 10
1.85313626
 20
-5.64693942
 30
0.0
 11
1.85263626
 21
-5.64693942
 31
0.0
  0
LINE
  5
166
100
AcDbEntity
  8
detail
 62
    16
  6
CONTINUOUS
370
    -2
100
AcDbLine
 10
1.85313626
 20
-5.64863164
 30
0.0
 11
1.85263626
 21
-5.64863164
 31
0.0
  0
LINE
  5
167
100
AcDbEntity
  8
detail
 62
    16
  6
CONTINUOUS
370
    -2
100
AcDbLine
 10
1.85313626
 20
-5.65032386
 30
0.0
 11
1.85263626
 21
-5.65032386
 31
0.0
  0
LINE
  5
168
100
AcDbEntity
  8
detail
 62
    16
  6
CONTINUOUS
370
    -2
100
AcDbLine
 10
1.85313626
 20
-5.65201608
 30
0.0
 11
1.85263626
 21
-5.65201608
 31
0.0
  0
LINE
  5
169
100
AcDbEntity
  8
detail
 62
    16
  6
CONTINUOUS
370
    -2
100
AcDbLine
 10
1.85313626
 20
-5.6537083
 30
0.0
 11
1.85263626
 21
-5.6537083
 31
0.0
  0
LINE
  5
16A
100
AcDbEntity
  8
detail
 62
    16
  6
CONTINUOUS
370
    -2
100
AcDbLine
 10
1.85313626
 20
-5.65540052
 30
0.0
 11
1.85263626
 21
-5.65540052
 31
0.0
  0
LINE
  5
16B
100
AcDbEntity
  8
detail
 62
    16
  6
CONTINUOUS
370
    -2
100
AcDbLine
 10
1.85313626
 20
-5.65709274
 30
0.0
 11
1.85263626
 21
-5.65709274
 31
0.0
  0
LINE
  5
16C
100
AcDbEntity
  8
detail
 62
    16
  6
CONTINUOUS
370
    -2
100
AcDbLine
 10
1.85313626
 20
-5.65878496
 30
0.0
 11
1.85263626
 21
-5.65878496
 31
0.0
  0
LINE
  5
16D
100
AcDbEntity
  8
detail
 62
    16
  6
CONTINUOUS
370
    -2
100
AcDbLine
 10
1.85313626
 20
-5.66047718
 30
0.0
 11
1.85263626
 21
-5.66047718
 31
0.0
  0
LINE
  5
16E
100
AcDbEntity
  8
detail
 62
    16
  6
CONTINUOUS
370
    -2
100
AcDbLine
 10
1.85313626
 20
-5.6621694
 30
0.0
 11
1.85263626
 21
-5.6621694
 31
0.0
  0
LINE
  5
16F
100
AcDbEntity
  8
detail
 62
    16
  6
CONTINUOUS
370
    -2
100
AcDbLine
 10
1.85313626
 20
-5.66386162
 30
0.0
 11
1.85263626
 21
-5.66386162
 31
0.0
  0
LINE
  5
170
100
AcDbEntity
  8
detail
 62
    16
  6
CONTINUOUS
370
    -2
100
AcDbLine
 10
1.85313626
 20
-5.66555384
 30
0.0
 11
1.85263626
 21
-5.66555384
 31
0.0
  0
LINE
  5
171
100
AcDbEntity
  8
detail
 62
    16
  6
CONTINUOUS
370
    -2
100
AcDbLine
 10
1.85313626
 20
-5.66724606
 30
0.0
 11
1.85263626
 21
-5.66724606
 31
0.0
  0
LINE
  5
172
100
AcDbEntity
  8
detail
 62
    16
  6
CONTINUOUS
370
    -2
100
AcDbLine
 10
1.85313626
 20
-5.66893828
 30
0.0
 11
1.85263626
 21
-5.66893828
 31
0.0
  0
LINE
  5
173
100
AcDbEntity
  8
detail
 62
    16
  6
CONTINUOUS
370
    -2
100
AcDbLine
 10
1.85313626
 20
-5.6706305
 30
0.0
 11
1.85263626
 21
-5.6706305
 31
0.0
  0
LINE
  5
174
100
AcDbEntity
  8
detail
 62
    16
  6
CONTINUOUS
370
    -2
100
AcDbLine
 10
1.85313626
 20
-5.67232273
 30
0.0
 11
1.85263626
 21
-5.67232273
 31
0.0
  0
LINE
  5
175
100
AcDbEntity
  8
detail
 62
    16
  6
CONTINUOUS
370
    -2
100
AcDbLine
 10
1.85313626
 20
-5.67401495
 30
0.0
 11
1.85263626
 21
-5.67401495
 31
0.0
  0
ENDBLK
  5
176
100
AcDbEntity
100
AcDbBlockEnd
  0
BLOCK
  5
177
100
AcDbEntity
  8
detail
100
AcDbBlockBegin
  2
*X9
 70
     1
 10
0.0
 20
0.0
 30
0.0
  3
*X9
  1

  4
Cadwork hatch
  0
LINE
  5
178
100
AcDbEntity
  8
detail
 62
    16
  6
CONTINUOUS
370
    -2
100
AcDbLine
 10
1.8562264
 20
-5.64186276
 30
0.0
 11
1.8557264
 21
-5.64186276
 31
0.0
  0
LINE
  5
179
100
AcDbEntity
  8
detail
 62
    16
  6
CONTINUOUS
370
    -2
100
AcDbLine
 10
1.8562264
 20
-5.64355498
 30
0.0
 11
1.8557264
 21
-5.64355498
 31
0.0
  0
LINE
  5
17A
100
AcDbEntity
  8
detail
 62
    16
  6
CONTINUOUS
370
    -2
100
AcDbLine
 10
1.8562264
 20
-5.6452472
 30
0.0
 11
1.8557264
 21
-5.6452472
 31
0.0
  0
LINE
  5
17B
100
AcDbEntity
  8
detail
 62
    16
  6
CONTINUOUS
370
    -2
100
AcDbLine
 10
1.8562264
 20
-5.64693942
 30
0.0
 11
1.8557264
 21
-5.64693942
 31
0.0
  0
LINE
  5
17C
100
AcDbEntity
  8
detail
 62
    16
  6
CONTINUOUS
370
    -2
100
AcDbLine
 10
1.8562264
 20
-5.64863164
 30
0.0
 11
1.8557264
 21
-5.64863164
 31
0.0
  0
LINE
  5
17D
100
AcDbEntity
  8
detail
 62
    16
  6
CONTINUOUS
370
    -2
100
AcDbLine
 10
1.8562264
 20
-5.65032386
 30
0.0
 11
1.8557264
 21
-5.65032386
 31
0.0
  0
LINE
  5
17E
100
AcDbEntity
  8
detail
 62
    16
  6
CONTINUOUS
370
    -2
100
AcDbLine
 10
1.8562264
 20
-5.65201608
 30
0.0
 11
1.8557264
 21
-5.65201608
 31
0.0
  0
LINE
  5
17F
100
AcDbEntity
  8
detail
 62
    16
  6
CONTINUOUS
370
    -2
100
AcDbLine
 10
1.8562264
 20
-5.6537083
 30
0.0
 11
1.8557264
 21
-5.6537083
 31
0.0
  0
LINE
  5
180
100
AcDbEntity
  8
detail
 62
    16
  6
CONTINUOUS
370
    -2
100
AcDbLine
 10
1.8562264
 20
-5.65540052
 30
0.0
 11
1.8557264
 21
-5.65540052
 31
0.0
  0
LINE
  5
181
100
AcDbEntity
  8
detail
 62
    16
  6
CONTINUOUS
370
    -2
100
AcDbLine
 10
1.8562264
 20
-5.65709274
 30
0.0
 11
1.8557264
 21
-5.65709274
 31
0.0
  0
LINE
  5
182
100
AcDbEntity
  8
detail
 62
    16
  6
CONTINUOUS
370
    -2
100
AcDbLine
 10
1.8562264
 20
-5.65878496
 30
0.0
 11
1.8557264
 21
-5.65878496
 31
0.0
  0
LINE
  5
183
100
AcDbEntity
  8
detail
 62
    16
  6
CONTINUOUS
370
    -2
100
AcDbLine
 10
1.8562264
 20
-5.66047718
 30
0.0
 11
1.8557264
 21
-5.66047718
 31
0.0
  0
LINE
  5
184
100
AcDbEntity
  8
detail
 62
    16
  6
CONTINUOUS
370
    -2
100
AcDbLine
 10
1.8562264
 20
-5.6621694
 30
0.0
 11
1.8557264
 21
-5.6621694
 31
0.0
  0
LINE
  5
185
100
AcDbEntity
  8
detail
 62
    16
  6
CONTINUOUS
370
    -2
100
AcDbLine
 10
1.8562264
 20
-5.66386162
 30
0.0
 11
1.8557264
 21
-5.66386162
 31
0.0
  0
LINE
  5
186
100
AcDbEntity
  8
detail
 62
    16
  6
CONTINUOUS
370
    -2
100
AcDbLine
 10
1.8562264
 20
-5.66555384
 30
0.0
 11
1.8557264
 21
-5.66555384
 31
0.0
  0
LINE
  5
187
100
AcDbEntity
  8
detail
 62
    16
  6
CONTINUOUS
370
    -2
100
AcDbLine
 10
1.8562264
 20
-5.66724606
 30
0.0
 11
1.8557264
 21
-5.66724606
 31
0.0
  0
LINE
  5
188
100
AcDbEntity
  8
detail
 62
    16
  6
CONTINUOUS
370
    -2
100
AcDbLine
 10
1.8562264
 20
-5.66893828
 30
0.0
 11
1.8557264
 21
-5.66893828
 31
0.0
  0
LINE
  5
189
100
AcDbEntity
  8
detail
 62
    16
  6
CONTINUOUS
370
    -2
100
AcDbLine
 10
1.8562264
 20
-5.6706305
 30
0.0
 11
1.8557264
 21
-5.6706305
 31
0.0
  0
LINE
  5
18A
100
AcDbEntity
  8
detail
 62
    16
  6
CONTINUOUS
370
    -2
100
AcDbLine
 10
1.8562264
 20
-5.67232273
 30
0.0
 11
1.8557264
 21
-5.67232273
 31
0.0
  0
LINE
  5
18B
100
AcDbEntity
  8
detail
 62
    16
  6
CONTINUOUS
370
    -2
100
AcDbLine
 10
1.8562264
 20
-5.67401495
 30
0.0
 11
1.8557264
 21
-5.67401495
 31
0.0
  0
ENDBLK
  5
18C
100
AcDbEntity
100
AcDbBlockEnd
  0
BLOCK
  5
18D
100
AcDbEntity
  8
detail
100
AcDbBlockBegin
  2
*X10
 70
     1
 10
0.0
 20
0.0
 30
0.0
  3
*X10
  1

  4
Cadwork hatch
  0
LINE
  5
18E
100
AcDbEntity
  8
detail
 62
    16
  6
CONTINUOUS
370
    -2
100
AcDbLine
 10
1.85468133
 20
-5.64186276
 30
0.0
 11
1.85418133
 21
-5.64186276
 31
0.0
  0
LINE
  5
18F
100
AcDbEntity
  8
detail
 62
    16
  6
CONTINUOUS
370
    -2
100
AcDbLine
 10
1.85468133
 20
-5.64355498
 30
0.0
 11
1.85418133
 21
-5.64355498
 31
0.0
  0
LINE
  5
190
100
AcDbEntity
  8
detail
 62
    16
  6
CONTINUOUS
370
    -2
100
AcDbLine
 10
1.85468133
 20
-5.6452472
 30
0.0
 11
1.85418133
 21
-5.6452472
 31
0.0
  0
LINE
  5
191
100
AcDbEntity
  8
detail
 62
    16
  6
CONTINUOUS
370
    -2
100
AcDbLine
 10
1.85468133
 20
-5.64693942
 30
0.0
 11
1.85418133
 21
-5.64693942
 31
0.0
  0
LINE
  5
192
100
AcDbEntity
  8
detail
 62
    16
  6
CONTINUOUS
370
    -2
100
AcDbLine
 10
1.85468133
 20
-5.64863164
 30
0.0
 11
1.85418133
 21
-5.64863164
 31
0.0
  0
LINE
  5
193
100
AcDbEntity
  8
detail
 62
    16
  6
CONTINUOUS
370
    -2
100
AcDbLine
 10
1.85468133
 20
-5.65032386
 30
0.0
 11
1.85418133
 21
-5.65032386
 31
0.0
  0
LINE
  5
194
100
AcDbEntity
  8
detail
 62
    16
  6
CONTINUOUS
370
    -2
100
AcDbLine
 10
1.85468133
 20
-5.65201608
 30
0.0
 11
1.85418133
 21
-5.65201608
 31
0.0
  0
LINE
  5
195
100
AcDbEntity
  8
detail
 62
    16
  6
CONTINUOUS
370
    -2
100
AcDbLine
 10
1.85468133
 20
-5.6537083
 30
0.0
 11
1.85418133
 21
-5.6537083
 31
0.0
  0
LINE
  5
196
100
AcDbEntity
  8
detail
 62
    16
  6
CONTINUOUS
370
    -2
100
AcDbLine
 10
1.85468133
 20
-5.65540052
 30
0.0
 11
1.85418133
 21
-5.65540052
 31
0.0
  0
LINE
  5
197
100
AcDbEntity
  8
detail
 62
    16
  6
CONTINUOUS
370
    -2
100
AcDbLine
 10
1.85468133
 20
-5.65709274
 30
0.0
 11
1.85418133
 21
-5.65709274
 31
0.0
  0
LINE
  5
198
100
AcDbEntity
  8
detail
 62
    16
  6
CONTINUOUS
370
    -2
100
AcDbLine
 10
1.85468133
 20
-5.65878496
 30
0.0
 11
1.85418133
 21
-5.65878496
 31
0.0
  0
LINE
  5
199
100
AcDbEntity
  8
detail
 62
    16
  6
CONTINUOUS
370
    -2
100
AcDbLine
 10
1.85468133
 20
-5.66047718
 30
0.0
 11
1.85418133
 21
-5.66047718
 31
0.0
  0
LINE
  5
19A
100
AcDbEntity
  8
detail
 62
    16
  6
CONTINUOUS
370
    -2
100
AcDbLine
 10
1.85468133
 20
-5.6621694
 30
0.0
 11
1.85418133
 21
-5.6621694
 31
0.0
  0
LINE
  5
19B
100
AcDbEntity
  8
detail
 62
    16
  6
CONTINUOUS
370
    -2
100
AcDbLine
 10
1.85468133
 20
-5.66386162
 30
0.0
 11
1.85418133
 21
-5.66386162
 31
0.0
  0
LINE
  5
19C
100
AcDbEntity
  8
detail
 62
    16
  6
CONTINUOUS
370
    -2
100
AcDbLine
 10
1.85468133
 20
-5.66555384
 30
0.0
 11
1.85418133
 21
-5.66555384
 31
0.0
  0
LINE
  5
19D
100
AcDbEntity
  8
detail
 62
    16
  6
CONTINUOUS
370
    -2
100
AcDbLine
 10
1.85468133
 20
-5.66724606
 30
0.0
 11
1.85418133
 21
-5.66724606
 31
0.0
  0
LINE
  5
19E
100
AcDbEntity
  8
detail
 62
    16
  6
CONTINUOUS
370
    -2
100
AcDbLine
 10
1.85468133
 20
-5.66893828
 30
0.0
 11
1.85418133
 21
-5.66893828
 31
0.0
  0
LINE
  5
19F
100
AcDbEntity
  8
detail
 62
    16
  6
CONTINUOUS
370
    -2
100
AcDbLine
 10
1.85468133
 20
-5.6706305
 30
0.0
 11
1.85418133
 21
-5.6706305
 31
0.0
  0
LINE
  5
1A0
100
AcDbEntity
  8
detail
 62
    16
  6
CONTINUOUS
370
    -2
100
AcDbLine
 10
1.85468133
 20
-5.67232273
 30
0.0
 11
1.85418133
 21
-5.67232273
 31
0.0
  0
LINE
  5
1A1
100
AcDbEntity
  8
detail
 62
    16
  6
CONTINUOUS
370
    -2
100
AcDbLine
 10
1.85468133
 20
-5.67401495
 30
0.0
 11
1.85418133
 21
-5.67401495
 31
0.0
  0
ENDBLK
  5
1A2
100
AcDbEntity
100
AcDbBlockEnd
  0
BLOCK
  5
1A3
100
AcDbEntity
  8
detail
100
AcDbBlockBegin
  2
*X11
 70
     1
 10
0.0
 20
0.0
 30
0.0
  3
*X11
  1

  4
Cadwork hatch
  0
LINE
  5
1A4
100
AcDbEntity
  8
detail
 62
   250
  6
CONTINUOUS
370
    -2
100
AcDbLine
 10
1.8315
 20
-5.55423166
 30
0.0
 11
1.8315
 21
-5.56323166
 31
0.0
  0
LINE
  5
1A5
100
AcDbEntity
  8
detail
 62
   250
  6
CONTINUOUS
370
    -2
100
AcDbLine
 10
1.833
 20
-5.55423166
 30
0.0
 11
1.833
 21
-5.56323166
 31
0.0
  0
LINE
  5
1A6
100
AcDbEntity
  8
detail
 62
   250
  6
CONTINUOUS
370
    -2
100
AcDbLine
 10
1.8345
 20
-5.55423166
 30
0.0
 11
1.8345
 21
-5.56323166
 31
0.0
  0
LINE
  5
1A7
100
AcDbEntity
  8
detail
 62
   250
  6
CONTINUOUS
370
    -2
100
AcDbLine
 10
1.836
 20
-5.55423166
 30
0.0
 11
1.836
 21
-5.56323166
 31
0.0
  0
LINE
  5
1A8
100
AcDbEntity
  8
detail
 62
   250
  6
CONTINUOUS
370
    -2
100
AcDbLine
 10
1.8375
 20
-5.55423166
 30
0.0
 11
1.8375
 21
-5.56323166
 31
0.0
  0
LINE
  5
1A9
100
AcDbEntity
  8
detail
 62
   250
  6
CONTINUOUS
370
    -2
100
AcDbLine
 10
1.839
 20
-5.55423166
 30
0.0
 11
1.839
 21
-5.56323166
 31
0.0
  0
LINE
  5
1AA
100
AcDbEntity
  8
detail
 62
   250
  6
CONTINUOUS
370
    -2
100
AcDbLine
 10
1.8405
 20
-5.55423166
 30
0.0
 11
1.8405
 21
-5.56323166
 31
0.0
  0
LINE
  5
1AB
100
AcDbEntity
  8
detail
 62
   250
  6
CONTINUOUS
370
    -2
100
AcDbLine
 10
1.842
 20
-5.55423166
 30
0.0
 11
1.842
 21
-5.56323166
 31
0.0
  0
LINE
  5
1AC
100
AcDbEntity
  8
detail
 62
   250
  6
CONTINUOUS
370
    -2
100
AcDbLine
 10
1.8435
 20
-5.55423166
 30
0.0
 11
1.8435
 21
-5.56323166
 31
0.0
  0
LINE
  5
1AD
100
AcDbEntity
  8
detail
 62
   250
  6
CONTINUOUS
370
    -2
100
AcDbLine
 10
1.845
 20
-5.55423166
 30
0.0
 11
1.845
 21
-5.56323166
 31
0.0
  0
LINE
  5
1AE
100
AcDbEntity
  8
detail
 62
   250
  6
CONTINUOUS
370
    -2
100
AcDbLine
 10
1.8465
 20
-5.55423166
 30
0.0
 11
1.8465
 21
-5.56323166
 31
0.0
  0
LINE
  5
1AF
100
AcDbEntity
  8
detail
 62
   250
  6
CONTINUOUS
370
    -2
100
AcDbLine
 10
1.848
 20
-5.55423166
 30
0.0
 11
1.848
 21
-5.56323166
 31
0.0
  0
ENDBLK
  5
1B0
100
AcDbEntity
100
AcDbBlockEnd
  0
BLOCK
  5
1B1
100
AcDbEntity
  8
detail
100
AcDbBlockBegin
  2
*D1
 70
     1
 10
0.0
 20
0.0
 30
0.0
  3
*D1
  1

  4
Cadwork dimension
  0
TEXT
  5
1B2
100
AcDbEntity
  8
detail
 62
   160
370
    18
100
AcDbText
 10
1.80495176
 20
-5.58274557
 30
0.0
 40
0.0016
  1
100
  7
FRUTIGER_55_ROMAN
 50
89.9999975
 41
0.94
 51
0.0
100
AcDbText
  0
LINE
  5
1B3
100
AcDbEntity
  8
detail
 62
   160
370
    -2
100
AcDbLine
 10
1.80395176
 20
-5.57672938
 30
0.0
 11
1.82696787
 21
-5.57672938
 31
0.0
  0
LINE
  5
1B4
100
AcDbEntity
  8
detail
 62
   160
370
    -2
100
AcDbLine
 10
1.80395176
 20
-5.58675006
 30
0.0
 11
1.82696787
 21
-5.58675006
 31
0.0
  0
LINE
  5
1B5
100
AcDbEntity
  8
detail
 62
   160
370
    -2
100
AcDbLine
 10
1.80595176
 20
-5.57472938
 30
0.0
 11
1.80595176
 21
-5.58875006
 31
0.0
  0
LINE
  5
1B6
100
AcDbEntity
  8
detail
 62
   160
370
    -2
100
AcDbLine
 10
1.80495176
 20
-5.57572938
 30
0.0
 11
1.80695176
 21
-5.57772938
 31
0.0
  0
LINE
  5
1B7
100
AcDbEntity
  8
detail
 62
   160
370
    -2
100
AcDbLine
 10
1.80495176
 20
-5.58575006
 30
0.0
 11
1.80695176
 21
-5.58775006
 31
0.0
  0
ENDBLK
  5
1B8
100
AcDbEntity
100
AcDbBlockEnd
  0
BLOCK
  5
1B9
100
AcDbEntity
  8
detail
100
AcDbBlockBegin
  2
*D2
 70
     1
 10
0.0
 20
0.0
 30
0.0
  3
*D2
  1

  4
Cadwork dimension
  0
TEXT
  5
1BA
100
AcDbEntity
  8
detail
 62
   160
370
    18
100
AcDbText
 10
1.80495176
 20
-5.5673679
 30
0.0
 40
0.0016
  1
var.
  7
FRUTIGER_55_ROMAN
 50
89.9999975
 41
0.94
 51
0.0
100
AcDbText
  0
LINE
  5
1BB
100
AcDbEntity
  8
detail
 62
   160
370
    -2
100
AcDbLine
 10
1.80395176
 20
-5.56323166
 30
0.0
 11
1.82696787
 21
-5.56323166
 31
0.0
  0
LINE
  5
1BC
100
AcDbEntity
  8
detail
 62
   160
370
    -2
100
AcDbLine
 10
1.80395176
 20
-5.56819723
 30
0.0
 11
1.82696787
 21
-5.56819723
 31
0.0
  0
LINE
  5
1BD
100
AcDbEntity
  8
detail
 62
   160
370
    -2
100
AcDbLine
 10
1.80595176
 20
-5.56123166
 30
0.0
 11
1.80595176
 21
-5.57019723
 31
0.0
  0
LINE
  5
1BE
100
AcDbEntity
  8
detail
 62
   160
370
    -2
100
AcDbLine
 10
1.80495176
 20
-5.56223166
 30
0.0
 11
1.80695176
 21
-5.56423166
 31
0.0
  0
LINE
  5
1BF
100
AcDbEntity
  8
detail
 62
   160
370
    -2
100
AcDbLine
 10
1.80495176
 20
-5.56719723
 30
0.0
 11
1.80695176
 21
-5.56919723
 31
0.0
  0
ENDBLK
  5
1C0
100
AcDbEntity
100
AcDbBlockEnd
  0
BLOCK
  5
1C1
100
AcDbEntity
  8
detail
100
AcDbBlockBegin
  2
*D3
 70
     1
 10
0.0
 20
0.0
 30
0.0
  3
*D3
  1

  4
Cadwork dimension
  0
TEXT
  5
1C2
100
AcDbEntity
  8
detail
 62
   160
370
    18
100
AcDbText
 10
1.80495176
 20
-5.57340447
 30
0.0
 40
0.0016
  1
84
  7
FRUTIGER_55_ROMAN
 50
89.9999975
 41
0.94
 51
0.0
100
AcDbText
  0
LINE
  5
1C3
100
AcDbEntity
  8
detail
 62
   160
370
    -2
100
AcDbLine
 10
1.80395176
 20
-5.56819723
 30
0.0
 11
1.82696787
 21
-5.56819723
 31
0.0
  0
LINE
  5
1C4
100
AcDbEntity
  8
detail
 62
   160
370
    -2
100
AcDbLine
 10
1.80395176
 20
-5.57672938
 30
0.0
 11
1.81095176
 21
-5.57672938
 31
0.0
  0
LINE
  5
1C5
100
AcDbEntity
  8
detail
 62
   160
370
    -2
100
AcDbLine
 10
1.80595176
 20
-5.56619723
 30
0.0
 11
1.80595176
 21
-5.57872938
 31
0.0
  0
LINE
  5
1C6
100
AcDbEntity
  8
detail
 62
   160
370
    -2
100
AcDbLine
 10
1.80495176
 20
-5.56719723
 30
0.0
 11
1.80695176
 21
-5.56919723
 31
0.0
  0
LINE
  5
1C7
100
AcDbEntity
  8
detail
 62
   160
370
    -2
100
AcDbLine
 10
1.80495176
 20
-5.57572938
 30
0.0
 11
1.80695176
 21
-5.57772938
 31
0.0
  0
ENDBLK
  5
1C8
100
AcDbEntity
100
AcDbBlockEnd
  0
BLOCK
  5
1C9
100
AcDbEntity
  8
detail
100
AcDbBlockBegin
  2
*D4
 70
     1
 10
0.0
 20
0.0
 30
0.0
  3
*D4
  1

  4
Cadwork dimension
  0
TEXT
  5
1CA
100
AcDbEntity
  8
detail
 62
   160
370
    18
100
AcDbText
 10
1.82566063
 20
-5.60582357
 30
0.0
 40
0.0016
  1
90
  7
FRUTIGER_55_ROMAN
 50
0.0
 41
0.94
 51
0.0
100
AcDbText
  0
LINE
  5
1CB
100
AcDbEntity
  8
detail
 62
   160
370
    -2
100
AcDbLine
 10
1.8223264
 20
-5.60882357
 30
0.0
 11
1.8223264
 21
-5.59323835
 31
0.0
  0
LINE
  5
1CC
100
AcDbEntity
  8
detail
 62
   160
370
    -2
100
AcDbLine
 10
1.8313264
 20
-5.60882357
 30
0.0
 11
1.8313264
 21
-5.59323835
 31
0.0
  0
LINE
  5
1CD
100
AcDbEntity
  8
detail
 62
   160
370
    -2
100
AcDbLine
 10
1.8203264
 20
-5.60682357
 30
0.0
 11
1.8333264
 21
-5.60682357
 31
0.0
  0
LINE
  5
1CE
100
AcDbEntity
  8
detail
 62
   160
370
    -2
100
AcDbLine
 10
1.8213264
 20
-5.60782357
 30
0.0
 11
1.8233264
 21
-5.60582357
 31
0.0
  0
LINE
  5
1CF
100
AcDbEntity
  8
detail
 62
   160
370
    -2
100
AcDbLine
 10
1.8303264
 20
-5.60782357
 30
0.0
 11
1.8323264
 21
-5.60582357
 31
0.0
  0
ENDBLK
  5
1D0
100
AcDbEntity
100
AcDbBlockEnd
  0
BLOCK
  5
1D1
100
AcDbEntity
  8
detail
100
AcDbBlockBegin
  2
*D5
 70
     1
 10
0.0
 20
0.0
 30
0.0
  3
*D5
  1

  4
Cadwork dimension
  0
TEXT
  5
1D2
100
AcDbEntity
  8
detail
 62
   160
370
    18
100
AcDbText
 10
1.84399431
 20
-5.60582357
 30
0.0
 40
0.0016
  1
var.
  7
FRUTIGER_55_ROMAN
 50
0.0
 41
0.94
 51
0.0
100
AcDbText
  0
LINE
  5
1D3
100
AcDbEntity
  8
detail
 62
   160
370
    -2
100
AcDbLine
 10
1.84097837
 20
-5.60882357
 30
0.0
 11
1.84097837
 21
-5.58562703
 31
0.0
  0
LINE
  5
1D4
100
AcDbEntity
  8
detail
 62
   160
370
    -2
100
AcDbLine
 10
1.8493264
 20
-5.60882357
 30
0.0
 11
1.8493264
 21
-5.59323835
 31
0.0
  0
LINE
  5
1D5
100
AcDbEntity
  8
detail
 62
   160
370
    -2
100
AcDbLine
 10
1.83897837
 20
-5.60682357
 30
0.0
 11
1.8513264
 21
-5.60682357
 31
0.0
  0
LINE
  5
1D6
100
AcDbEntity
  8
detail
 62
   160
370
    -2
100
AcDbLine
 10
1.83997837
 20
-5.60782357
 30
0.0
 11
1.84197837
 21
-5.60582357
 31
0.0
  0
LINE
  5
1D7
100
AcDbEntity
  8
detail
 62
   160
370
    -2
100
AcDbLine
 10
1.8483264
 20
-5.60782357
 30
0.0
 11
1.8503264
 21
-5.60582357
 31
0.0
  0
ENDBLK
  5
1D8
100
AcDbEntity
100
AcDbBlockEnd
  0
BLOCK
  5
1D9
100
AcDbEntity
  8
detail
100
AcDbBlockBegin
  2
*D6
 70
     1
 10
0.0
 20
0.0
 30
0.0
  3
*D6
  1

  4
Cadwork dimension
  0
TEXT
  5
1DA
100
AcDbEntity
  8
detail
 62
   160
370
    18
100
AcDbText
 10
1.83486763
 20
-5.60584727
 30
0.0
 40
0.0016
  1
var.
  7
FRUTIGER_55_ROMAN
 50
0.0
 41
0.94
 51
0.0
100
AcDbText
  0
LINE
  5
1DB
100
AcDbEntity
  8
detail
 62
   160
370
    -2
100
AcDbLine
 10
1.8313264
 20
-5.60882357
 30
0.0
 11
1.8313264
 21
-5.59323835
 31
0.0
  0
LINE
  5
1DC
100
AcDbEntity
  8
detail
 62
   160
370
    -2
100
AcDbLine
 10
1.84097837
 20
-5.60882357
 30
0.0
 11
1.84097837
 21
-5.60182357
 31
0.0
  0
LINE
  5
1DD
100
AcDbEntity
  8
detail
 62
   160
370
    -2
100
AcDbLine
 10
1.8293264
 20
-5.60682357
 30
0.0
 11
1.84297837
 21
-5.60682357
 31
0.0
  0
LINE
  5
1DE
100
AcDbEntity
  8
detail
 62
   160
370
    -2
100
AcDbLine
 10
1.8303264
 20
-5.60782357
 30
0.0
 11
1.8323264
 21
-5.60582357
 31
0.0
  0
LINE
  5
1DF
100
AcDbEntity
  8
detail
 62
   160
370
    -2
100
AcDbLine
 10
1.83997837
 20
-5.60782357
 30
0.0
 11
1.84197837
 21
-5.60582357
 31
0.0
  0
ENDBLK
  5
1E0
100
AcDbEntity
100
AcDbBlockEnd
  0
BLOCK
  5
1E1
100
AcDbEntity
  8
detail
100
AcDbBlockBegin
  2
*D7
 70
     1
 10
0.0
 20
0.0
 30
0.0
  3
*D7
  1

  4
Cadwork dimension
  0
TEXT
  5
1E2
100
AcDbEntity
  8
detail
 62
   160
370
    18
100
AcDbText
 10
1.83916832
 20
-5.61224018
 30
0.0
 40
0.0016
  1
180
  7
FRUTIGER_55_ROMAN
 50
0.0
 41
0.94
 51
0.0
100
AcDbText
  0
LINE
  5
1E3
100
AcDbEntity
  8
detail
 62
   160
370
    -2
100
AcDbLine
 10
1.8313264
 20
-5.61524018
 30
0.0
 11
1.8313264
 21
-5.60824018
 31
0.0
  0
LINE
  5
1E4
100
AcDbEntity
  8
detail
 62
   160
370
    -2
100
AcDbLine
 10
1.8493264
 20
-5.61524018
 30
0.0
 11
1.8493264
 21
-5.60824018
 31
0.0
  0
LINE
  5
1E5
100
AcDbEntity
  8
detail
 62
   160
370
    -2
100
AcDbLine
 10
1.8293264
 20
-5.61324018
 30
0.0
 11
1.8513264
 21
-5.61324018
 31
0.0
  0
LINE
  5
1E6
100
AcDbEntity
  8
detail
 62
   160
370
    -2
100
AcDbLine
 10
1.8303264
 20
-5.61424018
 30
0.0
 11
1.8323264
 21
-5.61224018
 31
0.0
  0
LINE
  5
1E7
100
AcDbEntity
  8
detail
 62
   160
370
    -2
100
AcDbLine
 10
1.8483264
 20
-5.61424018
 30
0.0
 11
1.8503264
 21
-5.61224018
 31
0.0
  0
ENDBLK
  5
1E8
100
AcDbEntity
100
AcDbBlockEnd
  0
BLOCK
  5
1E9
100
AcDbEntity
  8
detail
100
AcDbBlockBegin
  2
*D8
 70
     1
 10
0.0
 20
0.0
 30
0.0
  3
*D8
  1

  4
Cadwork dimension
  0
TEXT
  5
1EA
100
AcDbEntity
  8
detail
 62
   160
370
    18
100
AcDbText
 10
1.86902331
 20
-5.58122471
 30
0.0
 40
0.0016
  1
220 / 260
  7
FRUTIGER_55_ROMAN
 50
89.9999975
 41
0.94
 51
0.0
100
AcDbText
  0
LINE
  5
1EB
100
AcDbEntity
  8
detail
 62
   160
370
    -2
100
AcDbLine
 10
1.87202331
 20
-5.56323166
 30
0.0
 11
1.86502331
 21
-5.56323166
 31
0.0
  0
LINE
  5
1EC
100
AcDbEntity
  8
detail
 62
   160
370
    -2
100
AcDbLine
 10
1.87202331
 20
-5.58923166
 30
0.0
 11
1.84834461
 21
-5.58923166
 31
0.0
  0
LINE
  5
1ED
100
AcDbEntity
  8
detail
 62
   160
370
    -2
100
AcDbLine
 10
1.87002331
 20
-5.56123166
 30
0.0
 11
1.87002331
 21
-5.59123166
 31
0.0
  0
LINE
  5
1EE
100
AcDbEntity
  8
detail
 62
   160
370
    -2
100
AcDbLine
 10
1.86902331
 20
-5.56223166
 30
0.0
 11
1.87102331
 21
-5.56423166
 31
0.0
  0
LINE
  5
1EF
100
AcDbEntity
  8
detail
 62
   160
370
    -2
100
AcDbLine
 10
1.86902331
 20
-5.58823166
 30
0.0
 11
1.87102331
 21
-5.59023166
 31
0.0
  0
ENDBLK
  5
1F0
100
AcDbEntity
100
AcDbBlockEnd
  0
BLOCK
  5
1F1
100
AcDbEntity
  8
detail
100
AcDbBlockBegin
  2
*D9
 70
     1
 10
0.0
 20
0.0
 30
0.0
  3
*D9
  1

  4
Cadwork dimension
  0
TEXT
  5
1F2
100
AcDbEntity
  8
detail
 62
   160
370
    18
100
AcDbText
 10
1.86902331
 20
-5.55962454
 30
0.0
 40
0.0016
  1
90
  7
FRUTIGER_55_ROMAN
 50
89.9999975
 41
0.94
 51
0.0
100
AcDbText
  0
LINE
  5
1F3
100
AcDbEntity
  8
detail
 62
   160
370
    -2
100
AcDbLine
 10
1.87202331
 20
-5.55423166
 30
0.0
 11
1.85331214
 21
-5.55423166
 31
0.0
  0
LINE
  5
1F4
100
AcDbEntity
  8
detail
 62
   160
370
    -2
100
AcDbLine
 10
1.87202331
 20
-5.56323166
 30
0.0
 11
1.85331214
 21
-5.56323166
 31
0.0
  0
LINE
  5
1F5
100
AcDbEntity
  8
detail
 62
   160
370
    -2
100
AcDbLine
 10
1.87002331
 20
-5.55223166
 30
0.0
 11
1.87002331
 21
-5.56523166
 31
0.0
  0
LINE
  5
1F6
100
AcDbEntity
  8
detail
 62
   160
370
    -2
100
AcDbLine
 10
1.86902331
 20
-5.55323166
 30
0.0
 11
1.87102331
 21
-5.55523166
 31
0.0
  0
LINE
  5
1F7
100
AcDbEntity
  8
detail
 62
   160
370
    -2
100
AcDbLine
 10
1.86902331
 20
-5.56223166
 30
0.0
 11
1.87102331
 21
-5.56423166
 31
0.0
  0
ENDBLK
  5
1F8
100
AcDbEntity
100
AcDbBlockEnd
  0
BLOCK
  5
1F9
100
AcDbEntity
  8
detail
100
AcDbBlockBegin
  2
*D10
 70
     1
 10
0.0
 20
0.0
 30
0.0
  3
*D10
  1

  4
Cadwork dimension
  0
TEXT
  5
1FA
100
AcDbEntity
  8
detail
 62
   160
370
    18
100
AcDbText
 10
1.82979622
 20
-5.66315936
 30
0.0
 40
0.0016
  1
23
  7
FRUTIGER_55_ROMAN
 50
0.0
 41
0.94
 51
0.0
100
AcDbText
  0
LINE
  5
1FB
100
AcDbEntity
  8
detail
 62
   160
370
    -2
100
AcDbLine
 10
1.83254238
 20
-5.66615936
 30
0.0
 11
1.83254238
 21
-5.65915936
 31
0.0
  0
LINE
  5
1FC
100
AcDbEntity
  8
detail
 62
   160
370
    -2
100
AcDbLine
 10
1.83464238
 20
-5.66615936
 30
0.0
 11
1.83464238
 21
-5.65915936
 31
0.0
  0
LINE
  5
1FD
100
AcDbEntity
  8
detail
 62
   160
370
    -2
100
AcDbLine
 10
1.83054238
 20
-5.66415936
 30
0.0
 11
1.83664238
 21
-5.66415936
 31
0.0
  0
LINE
  5
1FE
100
AcDbEntity
  8
detail
 62
   160
370
    -2
100
AcDbLine
 10
1.83154238
 20
-5.66515936
 30
0.0
 11
1.83354238
 21
-5.66315936
 31
0.0
  0
LINE
  5
1FF
100
AcDbEntity
  8
detail
 62
   160
370
    -2
100
AcDbLine
 10
1.83364238
 20
-5.66515936
 30
0.0
 11
1.83564238
 21
-5.66315936
 31
0.0
  0
ENDBLK
  5
200
100
AcDbEntity
100
AcDbBlockEnd
  0
ENDSEC
  0
SECTION
  2
ENTITIES
  0
INSERT
  5
201
100
AcDbEntity
  8
detail
 62
     0
370
     5
100
AcDbBlockReference
  2
*X1
 10
0.0
 20
0.0
 30
0.0
  0
INSERT
  5
202
100
AcDbEntity
  8
detail
 62
     0
370
     5
100
AcDbBlockReference
  2
*X2
 10
0.0
 20
0.0
 30
0.0
  0
INSERT
  5
203
100
AcDbEntity
  8
detail
 62
     0
370
     5
100
AcDbBlockReference
  2
*X3
 10
0.0
 20
0.0
 30
0.0
  0
INSERT
  5
204
100
AcDbEntity
  8
detail
 62
     0
370
     5
100
AcDbBlockReference
  2
*X4
 10
0.0
 20
0.0
 30
0.0
  0
INSERT
  5
205
100
AcDbEntity
  8
detail
 62
     0
370
     5
100
AcDbBlockReference
  2
*X5
 10
0.0
 20
0.0
 30
0.0
  0
INSERT
  5
206
100
AcDbEntity
  8
detail
 62
     0
370
     5
100
AcDbBlockReference
  2
*X6
 10
0.0
 20
0.0
 30
0.0
  0
INSERT
  5
207
100
AcDbEntity
  8
detail
 62
     0
370
     5
100
AcDbBlockReference
  2
*X7
 10
0.0
 20
0.0
 30
0.0
  0
INSERT
  5
208
100
AcDbEntity
  8
detail
 62
     0
370
     5
100
AcDbBlockReference
  2
*X8
 10
0.0
 20
0.0
 30
0.0
  0
INSERT
  5
209
100
AcDbEntity
  8
detail
 62
     0
370
     5
100
AcDbBlockReference
  2
*X9
 10
0.0
 20
0.0
 30
0.0
  0
INSERT
  5
20A
100
AcDbEntity
  8
detail
 62
     0
370
     5
100
AcDbBlockReference
  2
*X10
 10
0.0
 20
0.0
 30
0.0
  0
INSERT
  5
20B
100
AcDbEntity
  8
detail
 62
     0
370
     5
100
AcDbBlockReference
  2
*X11
 10
0.0
 20
0.0
 30
0.0
  0
LWPOLYLINE
  5
20C
100
AcDbEntity
  8
detail
 62
   250
  6
CONTINUOUS
370
     5
100
AcDbPolyline
 90
        4
 70
     0
 43
0.0
 10
1.8313264
 20
-5.55423166
 10
1.8313264
 20
-5.56323166
 10
1.8493264
 20
-5.56323166
 10
1.8493264
 20
-5.55423166
  0
LWPOLYLINE
  5
20D
100
AcDbEntity
  8
detail
 62
   250
  6
CONTINUOUS
370
     5
100
AcDbPolyline
 90
        7
 70
     1
 43
0.0
 10
1.8223264
 20
-5.49851047
 10
1.8223264
 20
-5.58923166
 10
1.8313264
 20
-5.58923166
 10
1.8313264
 20
-5.55423166
 10
1.8313264
 20
-5.55423166
 10
1.8313264
 20
-5.55423166
 10
1.8403264
 20
-5.55423166
  0
LWPOLYLINE
  5
20E
102
{ACAD_REACTORS
330
20F
102
}
100
AcDbEntity
  8
detail
 62
     7
  6
CONTINUOUS
370
     5
100
AcDbPolyline
 90
        4
 70
     1
 43
0.0
 10
1.8553264
 20
-5.52923166
 10
1.8553264
 20
-5.51023166
 10
1.8403264
 20
-5.51023166
 10
1.8403264
 20
-5.52923166
  0
HATCH
  5
20F
100
AcDbEntity
  8
detail
 62
    16
  6
CONTINUOUS
100
AcDbHatch
 10
0.0
 20
0.0
 30
0.0
210
0.0
220
0.0
230
1.0
  2
ANSI31
 70
     0
 71
     1
 91
        1
 92
        7
 72
     0
 73
     1
 93
        4
 10
1.8553264
 20
-5.52923166
 10
1.8553264
 20
-5.51023166
 10
1.8403264
 20
-5.51023166
 10
1.8403264
 20
-5.52923166
 97
        1
330
20E
 75
     0
 76
     2
 52
0.0
 41
0.00157481
 77
     0
 78
     1
 53
45.0
 43
0.0
 44
0.0
 45
0.00353553
 46
-0.00353553
 79
     0
 47
0.775229
 98
        1
 10
0.0
 20
0.0
  0
3DFACE
  5
210
100
AcDbEntity
  8
detail
 62
    16
  6
CONTINUOUS
370
     5
100
AcDbFace
 70
     4
 10
1.8573264
 20
-5.53023166
 30
0.25
 11
1.8573264
 21
-5.52623166
 31
0.25
 12
1.9307099
 22
-5.52623166
 32
0.25
 13
1.9307099
 23
-5.53023166
 33
0.25
  0
3DFACE
  5
211
102
{ACAD_REACTORS
330
212
102
}
100
AcDbEntity
  8
detail
 62
    16
  6
CONTINUOUS
370
     5
100
AcDbFace
 70
     0
 10
1.8573264
 20
-5.51823166
 30
0.25
 11
1.8553264
 21
-5.51823166
 31
0.25
 12
1.8553264
 22
-5.53023166
 32
0.25
 13
1.8573264
 23
-5.53023166
 33
0.25
  0
HATCH
  5
212
100
AcDbEntity
  8
detail
 62
    16
  6
CONTINUOUS
100
AcDbHatch
 10
0.0
 20
0.0
 30
0.0
210
0.0
220
0.0
230
1.0
  2
ANSI31
 70
     0
 71
     1
 91
        1
 92
        7
 72
     0
 73
     1
 93
        4
 10
1.8573264
 20
-5.51823166
 10
1.8553264
 20
-5.51823166
 10
1.8553264
 20
-5.53023166
 10
1.8573264
 20
-5.53023166
 97
        1
330
211
 75
     0
 76
     2
 52
135.0
 41
0.0003937
 77
     0
 78
     1
 53
0.0
 43
0.0
 44
0.000625
 45
0.0
 46
0.00125
 79
     0
 47
0.775229
 98
        1
 10
0.0
 20
0.0
  0
LINE
  5
213
100
AcDbEntity
  8
detail
 62
    16
  6
CONTINUOUS
370
     5
100
AcDbLine
 10
1.84471759
 20
-5.57646725
 30
0.0
 11
1.84533531
 21
-5.57581272
 31
0.0
  0
LINE
  5
214
100
AcDbEntity
  8
detail
 62
    16
  6
CONTINUOUS
370
     5
100
AcDbLine
 10
1.83978905
 20
-5.57296987
 30
0.0
 11
1.8446411
 21
-5.57754099
 31
0.0
  0
LINE
  5
215
100
AcDbEntity
  8
detail
 62
    16
  6
CONTINUOUS
370
     5
100
AcDbLine
 10
1.84084346
 20
-5.57285039
 30
0.0
 11
1.84470117
 21
-5.57648464
 31
0.0
  0
LINE
  5
216
100
AcDbEntity
  8
detail
 62
    16
  6
CENTER
370
     5
100
AcDbLine
 10
1.8398264
 20
-5.57672938
 30
0.0
 11
1.8418264
 21
-5.57672938
 31
0.0
  0
LINE
  5
217
100
AcDbEntity
  8
detail
 62
    16
  6
CENTER
370
     5
100
AcDbLine
 10
1.8408264
 20
-5.57772938
 30
0.0
 11
1.8408264
 21
-5.57572938
 31
0.0
  0
LINE
  5
218
100
AcDbEntity
  8
detail
 62
    16
  6
CONTINUOUS
370
     5
100
AcDbLine
 10
1.84423996
 20
-5.58174582
 30
0.0
 11
1.84423996
 21
-5.58063091
 31
0.0
  0
LINE
  5
219
100
AcDbEntity
  8
detail
 62
    16
  6
CONTINUOUS
370
     5
100
AcDbLine
 10
1.832695
 20
-5.56819723
 30
0.0
 11
1.83302314
 21
-5.56824986
 31
0.0
  0
LINE
  5
21A
100
AcDbEntity
  8
detail
 62
    16
  6
CONTINUOUS
370
     5
100
AcDbLine
 10
1.84723996
 20
-5.5815063
 30
0.0
 11
1.84723996
 21
-5.5819563
 31
0.0
  0
LINE
  5
21B
100
AcDbEntity
  8
detail
 62
    16
  6
CONTINUOUS
370
     5
100
AcDbLine
 10
1.84123996
 20
-5.58174582
 30
0.0
 11
1.84123996
 21
-5.58063091
 31
0.0
  0
LINE
  5
21C
100
AcDbEntity
  8
detail
 62
    16
  6
CONTINUOUS
370
     5
100
AcDbLine
 10
1.84078793
 20
-5.58124441
 30
0.0
 11
1.8417599
 21
-5.58124441
 31
0.0
  0
LINE
  5
21D
100
AcDbEntity
  8
detail
 62
    16
  6
CONTINUOUS
370
     5
100
AcDbLine
 10
1.84378793
 20
-5.58124441
 30
0.0
 11
1.8447599
 21
-5.58124441
 31
0.0
  0
LINE
  5
21E
100
AcDbEntity
  8
detail
 62
    16
  6
CONTINUOUS
370
     5
100
AcDbLine
 10
1.83305907
 20
-5.585988
 30
0.0
 11
1.83308253
 21
-5.58594241
 31
0.0
  0
LINE
  5
21F
100
AcDbEntity
  8
detail
 62
    16
  6
CONTINUOUS
370
     5
100
AcDbLine
 10
1.83308253
 20
-5.58594241
 30
0.0
 11
1.83306597
 21
-5.58589388
 31
0.0
  0
LINE
  5
220
100
AcDbEntity
  8
detail
 62
    16
  6
CONTINUOUS
370
     5
100
AcDbLine
 10
1.8330856
 20
-5.58599536
 30
0.0
 11
1.83311175
 21
-5.58594455
 31
0.0
  0
LINE
  5
221
100
AcDbEntity
  8
detail
 62
    16
  6
CONTINUOUS
370
     5
100
AcDbLine
 10
1.83311175
 20
-5.58594455
 30
0.0
 11
1.83309329
 21
-5.58589047
 31
0.0
  0
LINE
  5
222
100
AcDbEntity
  8
detail
 62
    16
  6
CONTINUOUS
370
     5
100
AcDbLine
 10
1.83307109
 20
-5.58709217
 30
0.0
 11
1.83309554
 21
-5.58713724
 31
0.0
  0
LINE
  5
223
100
AcDbEntity
  8
detail
 62
    16
  6
CONTINUOUS
370
     5
100
AcDbLine
 10
1.83309554
 20
-5.58713724
 30
0.0
 11
1.83308004
 21
-5.58718611
 31
0.0
  0
LINE
  5
224
100
AcDbEntity
  8
detail
 62
    16
  6
CONTINUOUS
370
     5
100
AcDbLine
 10
1.8331247
 20
-5.58713447
 30
0.0
 11
1.83310743
 21
-5.58718893
 31
0.0
  0
LINE
  5
225
100
AcDbEntity
  8
detail
 62
    16
  6
CONTINUOUS
370
     5
100
AcDbLine
 10
1.83309746
 20
-5.58708424
 30
0.0
 11
1.8331247
 21
-5.58713447
 31
0.0
  0
LINE
  5
226
100
AcDbEntity
  8
detail
 62
    16
  6
CONTINUOUS
370
     5
100
AcDbLine
 10
1.83432904
 20
-5.57169417
 30
0.0
 11
1.83434715
 21
-5.57159374
 31
0.0
  0
LINE
  5
227
100
AcDbEntity
  8
detail
 62
    16
  6
CONTINUOUS
370
     5
100
AcDbLine
 10
1.83428445
 20
-5.5719945
 30
0.0
 11
1.83434919
 21
-5.57193049
 31
0.0
  0
LINE
  5
228
100
AcDbEntity
  8
detail
 62
    16
  6
CONTINUOUS
370
     5
100
AcDbLine
 10
1.83481873
 20
-5.57165333
 30
0.0
 11
1.83478713
 21
-5.57160477
 31
0.0
  0
LINE
  5
229
100
AcDbEntity
  8
detail
 62
    16
  6
CONTINUOUS
370
     5
100
AcDbLine
 10
1.83326381
 20
-5.5847749
 30
0.0
 11
1.83334031
 21
-5.58472771
 31
0.0
  0
LINE
  5
22A
100
AcDbEntity
  8
detail
 62
    16
  6
CONTINUOUS
370
     5
100
AcDbLine
 10
1.83335629
 20
-5.58470025
 30
0.0
 11
1.83337291
 21
-5.58424267
 31
0.0
  0
LINE
  5
22B
100
AcDbEntity
  8
detail
 62
    16
  6
CONTINUOUS
370
     5
100
AcDbLine
 10
1.83366728
 20
-5.58430617
 30
0.0
 11
1.83366928
 21
-5.58425364
 31
0.0
  0
LINE
  5
22C
100
AcDbEntity
  8
detail
 62
    16
  6
CONTINUOUS
370
     5
100
AcDbLine
 10
1.83373298
 20
-5.58430276
 30
0.0
 11
1.83372229
 21
-5.58422789
 31
0.0
  0
LINE
  5
22D
100
AcDbEntity
  8
detail
 62
    16
  6
CONTINUOUS
370
     5
100
AcDbLine
 10
1.83370628
 20
-5.58430655
 30
0.0
 11
1.83369477
 21
-5.58422763
 31
0.0
  0
LINE
  5
22E
100
AcDbEntity
  8
detail
 62
    16
  6
CONTINUOUS
370
     5
100
AcDbLine
 10
1.83369422
 20
-5.58430733
 30
0.0
 11
1.83369538
 21
-5.58423246
 31
0.0
  0
LINE
  5
22F
100
AcDbEntity
  8
detail
 62
    16
  6
CONTINUOUS
370
     5
100
AcDbLine
 10
1.83344093
 20
-5.58462533
 30
0.0
 11
1.8334268
 21
-5.58425364
 31
0.0
  0
LINE
  5
230
100
AcDbEntity
  8
detail
 62
    16
  6
CONTINUOUS
370
     5
100
AcDbLine
 10
1.83341399
 20
-5.58462636
 30
0.0
 11
1.83339965
 21
-5.58424915
 31
0.0
  0
LINE
  5
231
100
AcDbEntity
  8
detail
 62
    16
  6
CONTINUOUS
370
     5
100
AcDbLine
 10
1.83338324
 20
-5.58470123
 30
0.0
 11
1.83339985
 21
-5.58424365
 31
0.0
  0
LINE
  5
232
100
AcDbEntity
  8
detail
 62
    16
  6
CONTINUOUS
370
     5
100
AcDbLine
 10
1.83327796
 20
-5.58479785
 30
0.0
 11
1.83335446
 21
-5.58475066
 31
0.0
  0
LINE
  5
233
100
AcDbEntity
  8
detail
 62
    16
  6
CONTINUOUS
370
     5
100
AcDbLine
 10
1.83337603
 20
-5.58838666
 30
0.0
 11
1.83338524
 21
-5.58786523
 31
0.0
  0
LINE
  5
234
100
AcDbEntity
  8
detail
 62
    16
  6
CONTINUOUS
370
     5
100
AcDbLine
 10
1.83334907
 20
-5.58838619
 30
0.0
 11
1.83335828
 21
-5.58786475
 31
0.0
  0
LINE
  5
235
100
AcDbEntity
  8
detail
 62
    16
  6
CONTINUOUS
370
     5
100
AcDbLine
 10
1.83346443
 20
-5.58465618
 30
0.0
 11
1.83360209
 21
-5.58469979
 31
0.0
  0
LINE
  5
236
100
AcDbEntity
  8
detail
 62
    16
  6
CONTINUOUS
370
     5
100
AcDbLine
 10
1.83345629
 20
-5.58468188
 30
0.0
 11
1.83359395
 21
-5.58472549
 31
0.0
  0
LINE
  5
237
100
AcDbEntity
  8
detail
 62
    16
  6
CONTINUOUS
370
     5
100
AcDbLine
 10
1.83355506
 20
-5.58843121
 30
0.0
 11
1.83349668
 21
-5.58840017
 31
0.0
  0
LINE
  5
238
100
AcDbEntity
  8
detail
 62
    16
  6
CONTINUOUS
370
     5
100
AcDbLine
 10
1.83357092
 20
-5.58840745
 30
0.0
 11
1.83351254
 21
-5.58837641
 31
0.0
  0
LINE
  5
239
100
AcDbEntity
  8
detail
 62
    16
  6
CONTINUOUS
370
     5
100
AcDbLine
 10
1.83384243
 20
-5.58787743
 30
0.0
 11
1.83383781
 21
-5.58823109
 31
0.0
  0
LINE
  5
23A
100
AcDbEntity
  8
detail
 62
    16
  6
CONTINUOUS
370
     5
100
AcDbLine
 10
1.83362604
 20
-5.58837752
 30
0.0
 11
1.83362105
 21
-5.58839135
 31
0.0
  0
LINE
  5
23B
100
AcDbEntity
  8
detail
 62
    16
  6
CONTINUOUS
370
     5
100
AcDbLine
 10
1.83358678
 20
-5.58838369
 30
0.0
 11
1.83352064
 21
-5.5883507
 31
0.0
  0
LINE
  5
23C
100
AcDbEntity
  8
detail
 62
    16
  6
CONTINUOUS
370
     5
100
AcDbLine
 10
1.83381548
 20
-5.58787708
 30
0.0
 11
1.83380934
 21
-5.58823335
 31
0.0
  0
LINE
  5
23D
100
AcDbEntity
  8
detail
 62
    16
  6
CONTINUOUS
370
     5
100
AcDbLine
 10
1.83380934
 20
-5.58823335
 30
0.0
 11
1.83380291
 21
-5.587877
 31
0.0
  0
LINE
  5
23E
100
AcDbEntity
  8
detail
 62
    16
  6
CONTINUOUS
370
     5
100
AcDbLine
 10
1.83378086
 20
-5.5882356
 30
0.0
 11
1.83377596
 21
-5.58787737
 31
0.0
  0
LINE
  5
23F
100
AcDbEntity
  8
detail
 62
    16
  6
CONTINUOUS
370
     5
100
AcDbLine
 10
1.83353643
 20
-5.58833068
 30
0.0
 11
1.83362604
 21
-5.58837752
 31
0.0
  0
LINE
  5
240
100
AcDbEntity
  8
detail
 62
    16
  6
CONTINUOUS
370
     5
100
AcDbLine
 10
1.83457443
 20
-5.58378805
 30
0.0
 11
1.83445793
 21
-5.58378805
 31
0.0
  0
LINE
  5
241
100
AcDbEntity
  8
detail
 62
    16
  6
CONTINUOUS
370
     5
100
AcDbLine
 10
1.8362141
 20
-5.57319414
 30
0.0
 11
1.84586509
 21
-5.57319414
 31
0.0
  0
LINE
  5
242
100
AcDbEntity
  8
detail
 62
    16
  6
CONTINUOUS
370
     5
100
AcDbLine
 10
1.84709219
 20
-5.57481319
 30
0.0
 11
1.84709219
 21
-5.57070923
 31
0.0
  0
LINE
  5
243
100
AcDbEntity
  8
detail
 62
    16
  6
CONTINUOUS
370
     5
100
AcDbLine
 10
1.84709219
 20
-5.58183467
 30
0.0
 11
1.84709219
 21
-5.57864557
 31
0.0
  0
LINE
  5
244
100
AcDbEntity
  8
detail
 62
    16
  6
CONTINUOUS
370
     5
100
AcDbLine
 10
1.8362141
 20
-5.57265525
 30
0.0
 11
1.84586509
 21
-5.57265525
 31
0.0
  0
LINE
  5
245
100
AcDbEntity
  8
detail
 62
    16
  6
CONTINUOUS
370
     5
100
AcDbLine
 10
1.83247443
 20
-5.56844582
 30
0.0
 11
1.83247443
 21
-5.58620445
 31
0.0
  0
LINE
  5
246
100
AcDbEntity
  8
detail
 62
    16
  6
CONTINUOUS
370
     5
100
AcDbLine
 10
1.83254238
 20
-5.58672938
 30
0.0
 11
1.83304461
 21
-5.58672938
 31
0.0
  0
LINE
  5
247
100
AcDbEntity
  8
detail
 62
    16
  6
CONTINUOUS
370
     5
100
AcDbLine
 10
1.8362141
 20
-5.57973321
 30
0.0
 11
1.84586509
 21
-5.57973321
 31
0.0
  0
LINE
  5
248
100
AcDbEntity
  8
detail
 62
    16
  6
CONTINUOUS
370
     5
100
AcDbLine
 10
1.83306813
 20
-5.57019722
 30
0.0
 11
1.83306813
 21
-5.57191396
 31
0.0
  0
LINE
  5
249
100
AcDbEntity
  8
detail
 62
    16
  6
CONTINUOUS
370
     5
100
AcDbLine
 10
1.83307118
 20
-5.57398677
 30
0.0
 11
1.83310029
 21
-5.57394456
 31
0.0
  0
LINE
  5
24A
100
AcDbEntity
  8
detail
 62
    16
  6
CONTINUOUS
370
     5
100
AcDbLine
 10
1.83310029
 20
-5.57394456
 30
0.0
 11
1.83309007
 21
-5.57389432
 31
0.0
  0
LINE
  5
24B
100
AcDbEntity
  8
detail
 62
    16
  6
CONTINUOUS
370
     5
100
AcDbLine
 10
1.83309656
 20
-5.57399747
 30
0.0
 11
1.83312899
 21
-5.57395042
 31
0.0
  0
LINE
  5
24C
100
AcDbEntity
  8
detail
 62
    16
  6
CONTINUOUS
370
     5
100
AcDbLine
 10
1.83312899
 20
-5.57395042
 30
0.0
 11
1.8331176
 21
-5.57389443
 31
0.0
  0
LINE
  5
24D
100
AcDbEntity
  8
detail
 62
    16
  6
CONTINUOUS
370
     5
100
AcDbLine
 10
1.83294184
 20
-5.57508341
 30
0.0
 11
1.83296032
 21
-5.57513124
 31
0.0
  0
LINE
  5
24E
100
AcDbEntity
  8
detail
 62
    16
  6
CONTINUOUS
370
     5
100
AcDbLine
 10
1.83296032
 20
-5.57513124
 30
0.0
 11
1.83293869
 21
-5.57517773
 31
0.0
  0
LINE
  5
24F
100
AcDbEntity
  8
detail
 62
    16
  6
CONTINUOUS
370
     5
100
AcDbLine
 10
1.8329896
 20
-5.57513222
 30
0.0
 11
1.8329655
 21
-5.57518403
 31
0.0
  0
LINE
  5
250
100
AcDbEntity
  8
detail
 62
    16
  6
CONTINUOUS
370
     5
100
AcDbLine
 10
1.83296901
 20
-5.57507891
 30
0.0
 11
1.8329896
 21
-5.57513222
 31
0.0
  0
LINE
  5
251
100
AcDbEntity
  8
detail
 62
    16
  6
CONTINUOUS
370
     5
100
AcDbLine
 10
1.83342945
 20
-5.57280984
 30
0.0
 11
1.83351135
 21
-5.57277282
 31
0.0
  0
LINE
  5
252
100
AcDbEntity
  8
detail
 62
    16
  6
CONTINUOUS
370
     5
100
AcDbLine
 10
1.83353072
 20
-5.57274764
 30
0.0
 11
1.83360574
 21
-5.57229594
 31
0.0
  0
LINE
  5
253
100
AcDbEntity
  8
detail
 62
    16
  6
CONTINUOUS
370
     5
100
AcDbLine
 10
1.83388957
 20
-5.57239659
 30
0.0
 11
1.83389827
 21
-5.57234474
 31
0.0
  0
LINE
  5
254
100
AcDbEntity
  8
detail
 62
    16
  6
CONTINUOUS
370
     5
100
AcDbLine
 10
1.83395517
 20
-5.57240161
 30
0.0
 11
1.83395415
 21
-5.57232598
 31
0.0
  0
LINE
  5
255
100
AcDbEntity
  8
detail
 62
    16
  6
CONTINUOUS
370
     5
100
AcDbLine
 10
1.83392821
 20
-5.57240195
 30
0.0
 11
1.83392689
 21
-5.5723222
 31
0.0
  0
LINE
  5
256
100
AcDbEntity
  8
detail
 62
    16
  6
CONTINUOUS
370
     5
100
AcDbLine
 10
1.83391614
 20
-5.57240118
 30
0.0
 11
1.83392687
 21
-5.57232707
 31
0.0
  0
LINE
  5
257
100
AcDbEntity
  8
detail
 62
    16
  6
CONTINUOUS
370
     5
100
AcDbLine
 10
1.83362425
 20
-5.57268416
 30
0.0
 11
1.83365779
 21
-5.57231371
 31
0.0
  0
LINE
  5
258
100
AcDbEntity
  8
detail
 62
    16
  6
CONTINUOUS
370
     5
100
AcDbLine
 10
1.8335974
 20
-5.57268173
 30
0.0
 11
1.83363144
 21
-5.57230579
 31
0.0
  0
LINE
  5
259
100
AcDbEntity
  8
detail
 62
    16
  6
CONTINUOUS
370
     5
100
AcDbLine
 10
1.83355732
 20
-5.57275205
 30
0.0
 11
1.83363234
 21
-5.57230036
 31
0.0
  0
LINE
  5
25A
100
AcDbEntity
  8
detail
 62
    16
  6
CONTINUOUS
370
     5
100
AcDbLine
 10
1.83344055
 20
-5.57283441
 30
0.0
 11
1.83352246
 21
-5.57279739
 31
0.0
  0
LINE
  5
25B
100
AcDbEntity
  8
detail
 62
    16
  6
CONTINUOUS
370
     5
100
AcDbLine
 10
1.83307865
 20
-5.57640628
 30
0.0
 11
1.8331545
 21
-5.57589031
 31
0.0
  0
LINE
  5
25C
100
AcDbEntity
  8
detail
 62
    16
  6
CONTINUOUS
370
     5
100
AcDbLine
 10
1.83305198
 20
-5.57640236
 30
0.0
 11
1.83312783
 21
-5.57588639
 31
0.0
  0
LINE
  5
25D
100
AcDbEntity
  8
detail
 62
    16
  6
CONTINUOUS
370
     5
100
AcDbLine
 10
1.83364361
 20
-5.57271777
 30
0.0
 11
1.83377456
 21
-5.57277862
 31
0.0
  0
LINE
  5
25E
100
AcDbEntity
  8
detail
 62
    16
  6
CONTINUOUS
370
     5
100
AcDbLine
 10
1.83363225
 20
-5.57274222
 30
0.0
 11
1.8337632
 21
-5.57280307
 31
0.0
  0
LINE
  5
25F
100
AcDbEntity
  8
detail
 62
    16
  6
CONTINUOUS
370
     5
100
AcDbLine
 10
1.83325051
 20
-5.57647336
 30
0.0
 11
1.83319659
 21
-5.57643511
 31
0.0
  0
LINE
  5
260
100
AcDbEntity
  8
detail
 62
    16
  6
CONTINUOUS
370
     5
100
AcDbLine
 10
1.83326928
 20
-5.57645183
 30
0.0
 11
1.83321536
 21
-5.57641358
 31
0.0
  0
LINE
  5
261
100
AcDbEntity
  8
detail
 62
    16
  6
CONTINUOUS
370
     5
100
AcDbLine
 10
1.83360638
 20
-5.5759609
 30
0.0
 11
1.83355655
 21
-5.57631106
 31
0.0
  0
LINE
  5
262
100
AcDbEntity
  8
detail
 62
    16
  6
CONTINUOUS
370
     5
100
AcDbLine
 10
1.83332778
 20
-5.5764292
 30
0.0
 11
1.83332106
 21
-5.57644227
 31
0.0
  0
LINE
  5
263
100
AcDbEntity
  8
detail
 62
    16
  6
CONTINUOUS
370
     5
100
AcDbLine
 10
1.83328805
 20
-5.57643029
 30
0.0
 11
1.83322668
 21
-5.57638911
 31
0.0
  0
LINE
  5
264
100
AcDbEntity
  8
detail
 62
    16
  6
CONTINUOUS
370
     5
100
AcDbLine
 10
1.83357969
 20
-5.5759571
 30
0.0
 11
1.83352802
 21
-5.57630966
 31
0.0
  0
LINE
  5
265
100
AcDbEntity
  8
detail
 62
    16
  6
CONTINUOUS
370
     5
100
AcDbLine
 10
1.83352802
 20
-5.57630966
 30
0.0
 11
1.83356724
 21
-5.57595542
 31
0.0
  0
LINE
  5
266
100
AcDbEntity
  8
detail
 62
    16
  6
CONTINUOUS
370
     5
100
AcDbLine
 10
1.83349948
 20
-5.57630826
 30
0.0
 11
1.83354045
 21
-5.57595234
 31
0.0
  0
LINE
  5
267
100
AcDbEntity
  8
detail
 62
    16
  6
CONTINUOUS
370
     5
100
AcDbLine
 10
1.8332449
 20
-5.57637127
 30
0.0
 11
1.83332778
 21
-5.5764292
 31
0.0
  0
LINE
  5
268
100
AcDbEntity
  8
detail
 62
    16
  6
CONTINUOUS
370
     5
100
AcDbLine
 10
1.8362141
 20
-5.58151386
 30
0.0
 11
1.84586509
 21
-5.58151386
 31
0.0
  0
LINE
  5
269
100
AcDbEntity
  8
detail
 62
    16
  6
CONTINUOUS
370
     5
100
AcDbLine
 10
1.83301896
 20
-5.56866394
 30
0.0
 11
1.83398077
 21
-5.56964347
 31
0.0
  0
LINE
  5
26A
100
AcDbEntity
  8
detail
 62
    16
  6
CONTINUOUS
370
     5
100
AcDbLine
 10
1.8362141
 20
-5.57919432
 30
0.0
 11
1.84586509
 21
-5.57919432
 31
0.0
  0
LINE
  5
26B
100
AcDbEntity
  8
detail
 62
    16
  6
CONTINUOUS
370
     5
100
AcDbLine
 10
1.83302314
 20
-5.56824986
 30
0.0
 11
1.83418984
 21
-5.56943767
 31
0.0
  0
LINE
  5
26C
100
AcDbEntity
  8
detail
 62
    16
  6
CONTINUOUS
370
     5
100
AcDbLine
 10
1.8362141
 20
-5.57532519
 30
0.0
 11
1.84658018
 21
-5.57532519
 31
0.0
  0
LINE
  5
26D
100
AcDbEntity
  8
detail
 62
    16
  6
CONTINUOUS
370
     5
100
AcDbLine
 10
1.8362141
 20
-5.57813356
 30
0.0
 11
1.84658018
 21
-5.57813356
 31
0.0
  0
LINE
  5
26E
100
AcDbEntity
  8
detail
 62
    16
  6
CONTINUOUS
370
     5
100
AcDbLine
 10
1.84658018
 20
-5.57019722
 30
0.0
 11
1.83306813
 21
-5.57019722
 31
0.0
  0
LINE
  5
26F
100
AcDbEntity
  8
detail
 62
    16
  6
CONTINUOUS
370
     5
100
AcDbLine
 10
1.83513911
 20
-5.58234668
 30
0.0
 11
1.84658018
 21
-5.58234668
 31
0.0
  0
LINE
  5
270
100
AcDbEntity
  8
detail
 62
    16
  6
CONTINUOUS
370
     5
100
AcDbLine
 10
1.8362141
 20
-5.58097497
 30
0.0
 11
1.84586509
 21
-5.58097497
 31
0.0
  0
LINE
  5
271
100
AcDbEntity
  8
detail
 62
    16
  6
CONTINUOUS
370
     5
100
AcDbLine
 10
1.83398077
 20
-5.56964347
 30
0.0
 11
1.83418984
 21
-5.56943767
 31
0.0
  0
LINE
  5
272
100
AcDbEntity
  8
detail
 62
    16
  6
CONTINUOUS
370
     5
100
AcDbLine
 10
1.83279668
 20
-5.57801873
 30
0.0
 11
1.83282015
 21
-5.57797314
 31
0.0
  0
LINE
  5
273
100
AcDbEntity
  8
detail
 62
    16
  6
CONTINUOUS
370
     5
100
AcDbLine
 10
1.83282015
 20
-5.57797314
 30
0.0
 11
1.83280358
 21
-5.57792462
 31
0.0
  0
LINE
  5
274
100
AcDbEntity
  8
detail
 62
    16
  6
CONTINUOUS
370
     5
100
AcDbLine
 10
1.83282322
 20
-5.57802609
 30
0.0
 11
1.83284936
 21
-5.57797528
 31
0.0
  0
LINE
  5
275
100
AcDbEntity
  8
detail
 62
    16
  6
CONTINUOUS
370
     5
100
AcDbLine
 10
1.83284936
 20
-5.57797528
 30
0.0
 11
1.83283091
 21
-5.5779212
 31
0.0
  0
LINE
  5
276
100
AcDbEntity
  8
detail
 62
    16
  6
CONTINUOUS
370
     5
100
AcDbLine
 10
1.83280871
 20
-5.57912291
 30
0.0
 11
1.83283315
 21
-5.57916797
 31
0.0
  0
LINE
  5
277
100
AcDbEntity
  8
detail
 62
    16
  6
CONTINUOUS
370
     5
100
AcDbLine
 10
1.83283315
 20
-5.57916797
 30
0.0
 11
1.83281765
 21
-5.57921685
 31
0.0
  0
LINE
  5
278
100
AcDbEntity
  8
detail
 62
    16
  6
CONTINUOUS
370
     5
100
AcDbLine
 10
1.83286232
 20
-5.5791652
 30
0.0
 11
1.83284504
 21
-5.57921967
 31
0.0
  0
LINE
  5
279
100
AcDbEntity
  8
detail
 62
    16
  6
CONTINUOUS
370
     5
100
AcDbLine
 10
1.83283507
 20
-5.57911497
 30
0.0
 11
1.83286232
 21
-5.5791652
 31
0.0
  0
LINE
  5
27A
100
AcDbEntity
  8
detail
 62
    16
  6
CONTINUOUS
370
     5
100
AcDbLine
 10
1.83300142
 20
-5.57680563
 30
0.0
 11
1.83307792
 21
-5.57675844
 31
0.0
  0
LINE
  5
27B
100
AcDbEntity
  8
detail
 62
    16
  6
CONTINUOUS
370
     5
100
AcDbLine
 10
1.83309391
 20
-5.57673098
 30
0.0
 11
1.83311052
 21
-5.5762734
 31
0.0
  0
LINE
  5
27C
100
AcDbEntity
  8
detail
 62
    16
  6
CONTINUOUS
370
     5
100
AcDbLine
 10
1.83340489
 20
-5.57633691
 30
0.0
 11
1.83340689
 21
-5.57628437
 31
0.0
  0
LINE
  5
27D
100
AcDbEntity
  8
detail
 62
    16
  6
CONTINUOUS
370
     5
100
AcDbLine
 10
1.83347059
 20
-5.57633349
 30
0.0
 11
1.83345991
 21
-5.57625862
 31
0.0
  0
LINE
  5
27E
100
AcDbEntity
  8
detail
 62
    16
  6
CONTINUOUS
370
     5
100
AcDbLine
 10
1.8334439
 20
-5.57633729
 30
0.0
 11
1.83343239
 21
-5.57625836
 31
0.0
  0
LINE
  5
27F
100
AcDbEntity
  8
detail
 62
    16
  6
CONTINUOUS
370
     5
100
AcDbLine
 10
1.83343183
 20
-5.57633807
 30
0.0
 11
1.83343299
 21
-5.57626319
 31
0.0
  0
LINE
  5
280
100
AcDbEntity
  8
detail
 62
    16
  6
CONTINUOUS
370
     5
100
AcDbLine
 10
1.83317854
 20
-5.57665607
 30
0.0
 11
1.83316442
 21
-5.57628437
 31
0.0
  0
LINE
  5
281
100
AcDbEntity
  8
detail
 62
    16
  6
CONTINUOUS
370
     5
100
AcDbLine
 10
1.83291682
 20
-5.58204269
 30
0.0
 11
1.83293794
 21
-5.58199597
 31
0.0
  0
LINE
  5
282
100
AcDbEntity
  8
detail
 62
    16
  6
CONTINUOUS
370
     5
100
AcDbLine
 10
1.83374862
 20
-5.57254468
 30
0.0
 11
1.83371085
 21
-5.57247644
 31
0.0
  0
LINE
  5
283
100
AcDbEntity
  8
detail
 62
    16
  6
CONTINUOUS
370
     5
100
AcDbLine
 10
1.83372601
 20
-5.57237537
 30
0.0
 11
1.8337598
 21
-5.57234277
 31
0.0
  0
LINE
  5
284
100
AcDbEntity
  8
detail
 62
    16
  6
CONTINUOUS
370
     5
100
AcDbLine
 10
1.83378654
 20
-5.57236222
 30
0.0
 11
1.8337578
 21
-5.57242108
 31
0.0
  0
LINE
  5
285
100
AcDbEntity
  8
detail
 62
    16
  6
CONTINUOUS
370
     5
100
AcDbLine
 10
1.83375846
 20
-5.57244691
 30
0.0
 11
1.83377431
 21
-5.57247554
 31
0.0
  0
LINE
  5
286
100
AcDbEntity
  8
detail
 62
    16
  6
CONTINUOUS
370
     5
100
AcDbLine
 10
1.83374862
 20
-5.57254468
 30
0.0
 11
1.83371085
 21
-5.57247644
 31
0.0
  0
LINE
  5
287
100
AcDbEntity
  8
detail
 62
    16
  6
CONTINUOUS
370
     5
100
AcDbLine
 10
1.83372601
 20
-5.57237537
 30
0.0
 11
1.8337598
 21
-5.57234277
 31
0.0
  0
LINE
  5
288
100
AcDbEntity
  8
detail
 62
    16
  6
CONTINUOUS
370
     5
100
AcDbLine
 10
1.83378654
 20
-5.57236222
 30
0.0
 11
1.8337578
 21
-5.57242108
 31
0.0
  0
LINE
  5
289
100
AcDbEntity
  8
detail
 62
    16
  6
CONTINUOUS
370
     5
100
AcDbLine
 10
1.83375846
 20
-5.57244691
 30
0.0
 11
1.83377431
 21
-5.57247554
 31
0.0
  0
LINE
  5
28A
100
AcDbEntity
  8
detail
 62
    16
  6
CONTINUOUS
370
     5
100
AcDbLine
 10
1.83374862
 20
-5.57254468
 30
0.0
 11
1.83371085
 21
-5.57247644
 31
0.0
  0
LINE
  5
28B
100
AcDbEntity
  8
detail
 62
    16
  6
CONTINUOUS
370
     5
100
AcDbLine
 10
1.83372601
 20
-5.57237537
 30
0.0
 11
1.8337598
 21
-5.57234277
 31
0.0
  0
LINE
  5
28C
100
AcDbEntity
  8
detail
 62
    16
  6
CONTINUOUS
370
     5
100
AcDbLine
 10
1.83378654
 20
-5.57236222
 30
0.0
 11
1.8337578
 21
-5.57242108
 31
0.0
  0
LINE
  5
28D
100
AcDbEntity
  8
detail
 62
    16
  6
CONTINUOUS
370
     5
100
AcDbLine
 10
1.83375846
 20
-5.57244691
 30
0.0
 11
1.83377431
 21
-5.57247554
 31
0.0
  0
LINE
  5
28E
100
AcDbEntity
  8
detail
 62
    16
  6
CONTINUOUS
370
     5
100
AcDbLine
 10
1.83374862
 20
-5.57254468
 30
0.0
 11
1.83371085
 21
-5.57247644
 31
0.0
  0
LINE
  5
28F
100
AcDbEntity
  8
detail
 62
    16
  6
CONTINUOUS
370
     5
100
AcDbLine
 10
1.83372601
 20
-5.57237537
 30
0.0
 11
1.8337598
 21
-5.57234277
 31
0.0
  0
LINE
  5
290
100
AcDbEntity
  8
detail
 62
    16
  6
CONTINUOUS
370
     5
100
AcDbLine
 10
1.83378654
 20
-5.57236222
 30
0.0
 11
1.8337578
 21
-5.57242108
 31
0.0
  0
LINE
  5
291
100
AcDbEntity
  8
detail
 62
    16
  6
CONTINUOUS
370
     5
100
AcDbLine
 10
1.83375846
 20
-5.57244691
 30
0.0
 11
1.83377431
 21
-5.57247554
 31
0.0
  0
LINE
  5
292
100
AcDbEntity
  8
detail
 62
    16
  6
CONTINUOUS
370
     5
100
AcDbLine
 10
1.83374862
 20
-5.57254468
 30
0.0
 11
1.83371085
 21
-5.57247644
 31
0.0
  0
LINE
  5
293
100
AcDbEntity
  8
detail
 62
    16
  6
CONTINUOUS
370
     5
100
AcDbLine
 10
1.83372601
 20
-5.57237537
 30
0.0
 11
1.8337598
 21
-5.57234277
 31
0.0
  0
LINE
  5
294
100
AcDbEntity
  8
detail
 62
    16
  6
CONTINUOUS
370
     5
100
AcDbLine
 10
1.83378654
 20
-5.57236222
 30
0.0
 11
1.8337578
 21
-5.57242108
 31
0.0
  0
LINE
  5
295
100
AcDbEntity
  8
detail
 62
    16
  6
CONTINUOUS
370
     5
100
AcDbLine
 10
1.83375846
 20
-5.57244691
 30
0.0
 11
1.83377431
 21
-5.57247554
 31
0.0
  0
LINE
  5
296
100
AcDbEntity
  8
detail
 62
    16
  6
CONTINUOUS
370
     5
100
AcDbLine
 10
1.83374862
 20
-5.57254468
 30
0.0
 11
1.83371085
 21
-5.57247644
 31
0.0
  0
LINE
  5
297
100
AcDbEntity
  8
detail
 62
    16
  6
CONTINUOUS
370
     5
100
AcDbLine
 10
1.83372601
 20
-5.57237537
 30
0.0
 11
1.8337598
 21
-5.57234277
 31
0.0
  0
LINE
  5
298
100
AcDbEntity
  8
detail
 62
    16
  6
CONTINUOUS
370
     5
100
AcDbLine
 10
1.83378654
 20
-5.57236222
 30
0.0
 11
1.8337578
 21
-5.57242108
 31
0.0
  0
LINE
  5
299
100
AcDbEntity
  8
detail
 62
    16
  6
CONTINUOUS
370
     5
100
AcDbLine
 10
1.83375846
 20
-5.57244691
 30
0.0
 11
1.83377431
 21
-5.57247554
 31
0.0
  0
LINE
  5
29A
100
AcDbEntity
  8
detail
 62
    16
  6
CONTINUOUS
370
     5
100
AcDbLine
 10
1.83374862
 20
-5.57254468
 30
0.0
 11
1.83371085
 21
-5.57247644
 31
0.0
  0
LINE
  5
29B
100
AcDbEntity
  8
detail
 62
    16
  6
CONTINUOUS
370
     5
100
AcDbLine
 10
1.83372601
 20
-5.57237537
 30
0.0
 11
1.8337598
 21
-5.57234277
 31
0.0
  0
LINE
  5
29C
100
AcDbEntity
  8
detail
 62
    16
  6
CONTINUOUS
370
     5
100
AcDbLine
 10
1.83378654
 20
-5.57236222
 30
0.0
 11
1.8337578
 21
-5.57242108
 31
0.0
  0
LINE
  5
29D
100
AcDbEntity
  8
detail
 62
    16
  6
CONTINUOUS
370
     5
100
AcDbLine
 10
1.83375846
 20
-5.57244691
 30
0.0
 11
1.83377431
 21
-5.57247554
 31
0.0
  0
LINE
  5
29E
100
AcDbEntity
  8
detail
 62
    16
  6
CONTINUOUS
370
     5
100
AcDbLine
 10
1.83374862
 20
-5.57254468
 30
0.0
 11
1.83371085
 21
-5.57247644
 31
0.0
  0
LINE
  5
29F
100
AcDbEntity
  8
detail
 62
    16
  6
CONTINUOUS
370
     5
100
AcDbLine
 10
1.83372601
 20
-5.57237537
 30
0.0
 11
1.8337598
 21
-5.57234277
 31
0.0
  0
LINE
  5
2A0
100
AcDbEntity
  8
detail
 62
    16
  6
CONTINUOUS
370
     5
100
AcDbLine
 10
1.83378654
 20
-5.57236222
 30
0.0
 11
1.8337578
 21
-5.57242108
 31
0.0
  0
LINE
  5
2A1
100
AcDbEntity
  8
detail
 62
    16
  6
CONTINUOUS
370
     5
100
AcDbLine
 10
1.83375846
 20
-5.57244691
 30
0.0
 11
1.83377431
 21
-5.57247554
 31
0.0
  0
LINE
  5
2A2
100
AcDbEntity
  8
detail
 62
    16
  6
CONTINUOUS
370
     5
100
AcDbLine
 10
1.83374862
 20
-5.57254468
 30
0.0
 11
1.83371085
 21
-5.57247644
 31
0.0
  0
LINE
  5
2A3
100
AcDbEntity
  8
detail
 62
    16
  6
CONTINUOUS
370
     5
100
AcDbLine
 10
1.83372601
 20
-5.57237537
 30
0.0
 11
1.8337598
 21
-5.57234277
 31
0.0
  0
LINE
  5
2A4
100
AcDbEntity
  8
detail
 62
    16
  6
CONTINUOUS
370
     5
100
AcDbLine
 10
1.83378654
 20
-5.57236222
 30
0.0
 11
1.8337578
 21
-5.57242108
 31
0.0
  0
LINE
  5
2A5
100
AcDbEntity
  8
detail
 62
    16
  6
CONTINUOUS
370
     5
100
AcDbLine
 10
1.83375846
 20
-5.57244691
 30
0.0
 11
1.83377431
 21
-5.57247554
 31
0.0
  0
LINE
  5
2A6
100
AcDbEntity
  8
detail
 62
    16
  6
CONTINUOUS
370
     5
100
AcDbLine
 10
1.83374862
 20
-5.57254468
 30
0.0
 11
1.83371085
 21
-5.57247644
 31
0.0
  0
LINE
  5
2A7
100
AcDbEntity
  8
detail
 62
    16
  6
CONTINUOUS
370
     5
100
AcDbLine
 10
1.83372601
 20
-5.57237537
 30
0.0
 11
1.8337598
 21
-5.57234277
 31
0.0
  0
LINE
  5
2A8
100
AcDbEntity
  8
detail
 62
    16
  6
CONTINUOUS
370
     5
100
AcDbLine
 10
1.83378654
 20
-5.57236222
 30
0.0
 11
1.8337578
 21
-5.57242108
 31
0.0
  0
LINE
  5
2A9
100
AcDbEntity
  8
detail
 62
    16
  6
CONTINUOUS
370
     5
100
AcDbLine
 10
1.83375846
 20
-5.57244691
 30
0.0
 11
1.83377431
 21
-5.57247554
 31
0.0
  0
LINE
  5
2AA
100
AcDbEntity
  8
detail
 62
    16
  6
CONTINUOUS
370
     5
100
AcDbLine
 10
1.83374862
 20
-5.57254468
 30
0.0
 11
1.83371085
 21
-5.57247644
 31
0.0
  0
LINE
  5
2AB
100
AcDbEntity
  8
detail
 62
    16
  6
CONTINUOUS
370
     5
100
AcDbLine
 10
1.83372601
 20
-5.57237537
 30
0.0
 11
1.8337598
 21
-5.57234277
 31
0.0
  0
LINE
  5
2AC
100
AcDbEntity
  8
detail
 62
    16
  6
CONTINUOUS
370
     5
100
AcDbLine
 10
1.83378654
 20
-5.57236222
 30
0.0
 11
1.8337578
 21
-5.57242108
 31
0.0
  0
LINE
  5
2AD
100
AcDbEntity
  8
detail
 62
    16
  6
CONTINUOUS
370
     5
100
AcDbLine
 10
1.83375846
 20
-5.57244691
 30
0.0
 11
1.83377431
 21
-5.57247554
 31
0.0
  0
LINE
  5
2AE
100
AcDbEntity
  8
detail
 62
    16
  6
CONTINUOUS
370
     5
100
AcDbLine
 10
1.83374862
 20
-5.57254468
 30
0.0
 11
1.83371085
 21
-5.57247644
 31
0.0
  0
LINE
  5
2AF
100
AcDbEntity
  8
detail
 62
    16
  6
CONTINUOUS
370
     5
100
AcDbLine
 10
1.83372601
 20
-5.57237537
 30
0.0
 11
1.8337598
 21
-5.57234277
 31
0.0
  0
LINE
  5
2B0
100
AcDbEntity
  8
detail
 62
    16
  6
CONTINUOUS
370
     5
100
AcDbLine
 10
1.83378654
 20
-5.57236222
 30
0.0
 11
1.8337578
 21
-5.57242108
 31
0.0
  0
LINE
  5
2B1
100
AcDbEntity
  8
detail
 62
    16
  6
CONTINUOUS
370
     5
100
AcDbLine
 10
1.83375846
 20
-5.57244691
 30
0.0
 11
1.83377431
 21
-5.57247554
 31
0.0
  0
LINE
  5
2B2
100
AcDbEntity
  8
detail
 62
    16
  6
CONTINUOUS
370
     5
100
AcDbLine
 10
1.83374862
 20
-5.57254468
 30
0.0
 11
1.83371085
 21
-5.57247644
 31
0.0
  0
LINE
  5
2B3
100
AcDbEntity
  8
detail
 62
    16
  6
CONTINUOUS
370
     5
100
AcDbLine
 10
1.83372601
 20
-5.57237537
 30
0.0
 11
1.8337598
 21
-5.57234277
 31
0.0
  0
LINE
  5
2B4
100
AcDbEntity
  8
detail
 62
    16
  6
CONTINUOUS
370
     5
100
AcDbLine
 10
1.83378654
 20
-5.57236222
 30
0.0
 11
1.8337578
 21
-5.57242108
 31
0.0
  0
LINE
  5
2B5
100
AcDbEntity
  8
detail
 62
    16
  6
CONTINUOUS
370
     5
100
AcDbLine
 10
1.83375846
 20
-5.57244691
 30
0.0
 11
1.83377431
 21
-5.57247554
 31
0.0
  0
LINE
  5
2B6
100
AcDbEntity
  8
detail
 62
    16
  6
CONTINUOUS
370
     5
100
AcDbLine
 10
1.83374862
 20
-5.57254468
 30
0.0
 11
1.83371085
 21
-5.57247644
 31
0.0
  0
LINE
  5
2B7
100
AcDbEntity
  8
detail
 62
    16
  6
CONTINUOUS
370
     5
100
AcDbLine
 10
1.83372601
 20
-5.57237537
 30
0.0
 11
1.8337598
 21
-5.57234277
 31
0.0
  0
LINE
  5
2B8
100
AcDbEntity
  8
detail
 62
    16
  6
CONTINUOUS
370
     5
100
AcDbLine
 10
1.83378654
 20
-5.57236222
 30
0.0
 11
1.8337578
 21
-5.57242108
 31
0.0
  0
LINE
  5
2B9
100
AcDbEntity
  8
detail
 62
    16
  6
CONTINUOUS
370
     5
100
AcDbLine
 10
1.83375846
 20
-5.57244691
 30
0.0
 11
1.83377431
 21
-5.57247554
 31
0.0
  0
LINE
  5
2BA
100
AcDbEntity
  8
detail
 62
    16
  6
CONTINUOUS
370
     5
100
AcDbLine
 10
1.83374862
 20
-5.57254468
 30
0.0
 11
1.83371085
 21
-5.57247644
 31
0.0
  0
LINE
  5
2BB
100
AcDbEntity
  8
detail
 62
    16
  6
CONTINUOUS
370
     5
100
AcDbLine
 10
1.83372601
 20
-5.57237537
 30
0.0
 11
1.8337598
 21
-5.57234277
 31
0.0
  0
LINE
  5
2BC
100
AcDbEntity
  8
detail
 62
    16
  6
CONTINUOUS
370
     5
100
AcDbLine
 10
1.83378654
 20
-5.57236222
 30
0.0
 11
1.8337578
 21
-5.57242108
 31
0.0
  0
LINE
  5
2BD
100
AcDbEntity
  8
detail
 62
    16
  6
CONTINUOUS
370
     5
100
AcDbLine
 10
1.83375846
 20
-5.57244691
 30
0.0
 11
1.83377431
 21
-5.57247554
 31
0.0
  0
LINE
  5
2BE
100
AcDbEntity
  8
detail
 62
    16
  6
CONTINUOUS
370
     5
100
AcDbLine
 10
1.83374862
 20
-5.57254468
 30
0.0
 11
1.83371085
 21
-5.57247644
 31
0.0
  0
LINE
  5
2BF
100
AcDbEntity
  8
detail
 62
    16
  6
CONTINUOUS
370
     5
100
AcDbLine
 10
1.83372601
 20
-5.57237537
 30
0.0
 11
1.8337598
 21
-5.57234277
 31
0.0
  0
LINE
  5
2C0
100
AcDbEntity
  8
detail
 62
    16
  6
CONTINUOUS
370
     5
100
AcDbLine
 10
1.83378654
 20
-5.57236222
 30
0.0
 11
1.8337578
 21
-5.57242108
 31
0.0
  0
LINE
  5
2C1
100
AcDbEntity
  8
detail
 62
    16
  6
CONTINUOUS
370
     5
100
AcDbLine
 10
1.83375846
 20
-5.57244691
 30
0.0
 11
1.83377431
 21
-5.57247554
 31
0.0
  0
LINE
  5
2C2
100
AcDbEntity
  8
detail
 62
    16
  6
CONTINUOUS
370
     5
100
AcDbLine
 10
1.83380448
 20
-5.57204322
 30
0.0
 11
1.83355296
 21
-5.57229474
 31
0.0
  0
LINE
  5
2C3
100
AcDbEntity
  8
detail
 62
    16
  6
CONTINUOUS
370
     5
100
AcDbLine
 10
1.83354837
 20
-5.57230052
 30
0.0
 11
1.83351797
 21
-5.57232984
 31
0.0
  0
LINE
  5
2C4
100
AcDbEntity
  8
detail
 62
    16
  6
CONTINUOUS
370
     5
100
AcDbLine
 10
1.83354837
 20
-5.57230052
 30
0.0
 11
1.83351797
 21
-5.57232984
 31
0.0
  0
LINE
  5
2C5
100
AcDbEntity
  8
detail
 62
    16
  6
CONTINUOUS
370
     5
100
AcDbLine
 10
1.83354837
 20
-5.57230052
 30
0.0
 11
1.83351797
 21
-5.57232984
 31
0.0
  0
LINE
  5
2C6
100
AcDbEntity
  8
detail
 62
    16
  6
CONTINUOUS
370
     5
100
AcDbLine
 10
1.83354837
 20
-5.57230052
 30
0.0
 11
1.83351797
 21
-5.57232984
 31
0.0
  0
LINE
  5
2C7
100
AcDbEntity
  8
detail
 62
    16
  6
CONTINUOUS
370
     5
100
AcDbLine
 10
1.83354837
 20
-5.57230052
 30
0.0
 11
1.83351797
 21
-5.57232984
 31
0.0
  0
LINE
  5
2C8
100
AcDbEntity
  8
detail
 62
    16
  6
CONTINUOUS
370
     5
100
AcDbLine
 10
1.83354837
 20
-5.57230052
 30
0.0
 11
1.83351797
 21
-5.57232984
 31
0.0
  0
LINE
  5
2C9
100
AcDbEntity
  8
detail
 62
    16
  6
CONTINUOUS
370
     5
100
AcDbLine
 10
1.83354837
 20
-5.57230052
 30
0.0
 11
1.83351797
 21
-5.57232984
 31
0.0
  0
LINE
  5
2CA
100
AcDbEntity
  8
detail
 62
    16
  6
CONTINUOUS
370
     5
100
AcDbLine
 10
1.83354837
 20
-5.57230052
 30
0.0
 11
1.83351797
 21
-5.57232984
 31
0.0
  0
LINE
  5
2CB
100
AcDbEntity
  8
detail
 62
    16
  6
CONTINUOUS
370
     5
100
AcDbLine
 10
1.83354837
 20
-5.57230052
 30
0.0
 11
1.83351797
 21
-5.57232984
 31
0.0
  0
LINE
  5
2CC
100
AcDbEntity
  8
detail
 62
    16
  6
CONTINUOUS
370
     5
100
AcDbLine
 10
1.83354837
 20
-5.57230052
 30
0.0
 11
1.83351797
 21
-5.57232984
 31
0.0
  0
LINE
  5
2CD
100
AcDbEntity
  8
detail
 62
    16
  6
CONTINUOUS
370
     5
100
AcDbLine
 10
1.83354837
 20
-5.57230052
 30
0.0
 11
1.83351797
 21
-5.57232984
 31
0.0
  0
LINE
  5
2CE
100
AcDbEntity
  8
detail
 62
    16
  6
CONTINUOUS
370
     5
100
AcDbLine
 10
1.83354837
 20
-5.57230052
 30
0.0
 11
1.83351797
 21
-5.57232984
 31
0.0
  0
LINE
  5
2CF
100
AcDbEntity
  8
detail
 62
    16
  6
CONTINUOUS
370
     5
100
AcDbLine
 10
1.83354837
 20
-5.57230052
 30
0.0
 11
1.83351797
 21
-5.57232984
 31
0.0
  0
LINE
  5
2D0
100
AcDbEntity
  8
detail
 62
    16
  6
CONTINUOUS
370
     5
100
AcDbLine
 10
1.83354837
 20
-5.57230052
 30
0.0
 11
1.83351797
 21
-5.57232984
 31
0.0
  0
LINE
  5
2D1
100
AcDbEntity
  8
detail
 62
    16
  6
CONTINUOUS
370
     5
100
AcDbLine
 10
1.83354837
 20
-5.57230052
 30
0.0
 11
1.83351797
 21
-5.57232984
 31
0.0
  0
LINE
  5
2D2
100
AcDbEntity
  8
detail
 62
    16
  6
CONTINUOUS
370
     5
100
AcDbLine
 10
1.83354837
 20
-5.57230052
 30
0.0
 11
1.83351797
 21
-5.57232984
 31
0.0
  0
LINE
  5
2D3
100
AcDbEntity
  8
detail
 62
    16
  6
CONTINUOUS
370
     5
100
AcDbLine
 10
1.83458469
 20
-5.57180201
 30
0.0
 11
1.83462451
 21
-5.57182784
 31
0.0
  0
LINE
  5
2D4
100
AcDbEntity
  8
detail
 62
    16
  6
CONTINUOUS
370
     5
100
AcDbLine
 10
1.84033651
 20
-5.57721928
 30
0.0
 11
1.84033651
 21
-5.57623948
 31
0.0
  0
LINE
  5
2D5
100
AcDbEntity
  8
detail
 62
    16
  6
CONTINUOUS
370
     5
100
AcDbLine
 10
1.84033651
 20
-5.57721928
 30
0.0
 11
1.8413163
 21
-5.57721928
 31
0.0
  0
LINE
  5
2D6
100
AcDbEntity
  8
detail
 62
    16
  6
CONTINUOUS
370
     5
100
AcDbLine
 10
1.8413163
 20
-5.57721928
 30
0.0
 11
1.8413163
 21
-5.57623948
 31
0.0
  0
LINE
  5
2D7
100
AcDbEntity
  8
detail
 62
    16
  6
CONTINUOUS
370
     5
100
AcDbLine
 10
1.8413163
 20
-5.57623948
 30
0.0
 11
1.84033651
 21
-5.57623948
 31
0.0
  0
LINE
  5
2D8
100
AcDbEntity
  8
detail
 62
    16
  6
CONTINUOUS
370
     5
100
AcDbLine
 10
1.8408264
 20
-5.57672938
 30
0.0
 11
1.8408264
 21
-5.57672938
 31
0.0
  0
LINE
  5
2D9
100
AcDbEntity
  8
detail
 62
    16
  6
CONTINUOUS
370
     5
100
AcDbLine
 10
1.84033651
 20
-5.57721928
 30
0.0
 11
1.84033651
 21
-5.57623948
 31
0.0
  0
LINE
  5
2DA
100
AcDbEntity
  8
detail
 62
    16
  6
CONTINUOUS
370
     5
100
AcDbLine
 10
1.84033651
 20
-5.57721928
 30
0.0
 11
1.8413163
 21
-5.57721928
 31
0.0
  0
LINE
  5
2DB
100
AcDbEntity
  8
detail
 62
    16
  6
CONTINUOUS
370
     5
100
AcDbLine
 10
1.8413163
 20
-5.57721928
 30
0.0
 11
1.8413163
 21
-5.57623948
 31
0.0
  0
LINE
  5
2DC
100
AcDbEntity
  8
detail
 62
    16
  6
CONTINUOUS
370
     5
100
AcDbLine
 10
1.8413163
 20
-5.57623948
 30
0.0
 11
1.84033651
 21
-5.57623948
 31
0.0
  0
LINE
  5
2DD
100
AcDbEntity
  8
detail
 62
    16
  6
CONTINUOUS
370
     5
100
AcDbLine
 10
1.8408264
 20
-5.57672938
 30
0.0
 11
1.8408264
 21
-5.57672938
 31
0.0
  0
LINE
  5
2DE
100
AcDbEntity
  8
detail
 62
    16
  6
CONTINUOUS
370
     5
100
AcDbLine
 10
1.84033651
 20
-5.57721928
 30
0.0
 11
1.84033651
 21
-5.57623948
 31
0.0
  0
LINE
  5
2DF
100
AcDbEntity
  8
detail
 62
    16
  6
CONTINUOUS
370
     5
100
AcDbLine
 10
1.84033651
 20
-5.57721928
 30
0.0
 11
1.8413163
 21
-5.57721928
 31
0.0
  0
LINE
  5
2E0
100
AcDbEntity
  8
detail
 62
    16
  6
CONTINUOUS
370
     5
100
AcDbLine
 10
1.8413163
 20
-5.57721928
 30
0.0
 11
1.8413163
 21
-5.57623948
 31
0.0
  0
LINE
  5
2E1
100
AcDbEntity
  8
detail
 62
    16
  6
CONTINUOUS
370
     5
100
AcDbLine
 10
1.8413163
 20
-5.57623948
 30
0.0
 11
1.84033651
 21
-5.57623948
 31
0.0
  0
LINE
  5
2E2
100
AcDbEntity
  8
detail
 62
    16
  6
CONTINUOUS
370
     5
100
AcDbLine
 10
1.8408264
 20
-5.57672938
 30
0.0
 11
1.8408264
 21
-5.57672938
 31
0.0
  0
LINE
  5
2E3
100
AcDbEntity
  8
detail
 62
    16
  6
CONTINUOUS
370
     5
100
AcDbLine
 10
1.84033651
 20
-5.57721928
 30
0.0
 11
1.84033651
 21
-5.57623948
 31
0.0
  0
LINE
  5
2E4
100
AcDbEntity
  8
detail
 62
    16
  6
CONTINUOUS
370
     5
100
AcDbLine
 10
1.84033651
 20
-5.57721928
 30
0.0
 11
1.8413163
 21
-5.57721928
 31
0.0
  0
LINE
  5
2E5
100
AcDbEntity
  8
detail
 62
    16
  6
CONTINUOUS
370
     5
100
AcDbLine
 10
1.8413163
 20
-5.57721928
 30
0.0
 11
1.8413163
 21
-5.57623948
 31
0.0
  0
LINE
  5
2E6
100
AcDbEntity
  8
detail
 62
    16
  6
CONTINUOUS
370
     5
100
AcDbLine
 10
1.8413163
 20
-5.57623948
 30
0.0
 11
1.84033651
 21
-5.57623948
 31
0.0
  0
LINE
  5
2E7
100
AcDbEntity
  8
detail
 62
    16
  6
CONTINUOUS
370
     5
100
AcDbLine
 10
1.84148611
 20
-5.57977361
 30
0.0
 11
1.84261958
 21
-5.57771827
 31
0.0
  0
LINE
  5
2E8
100
AcDbEntity
  8
detail
 62
    16
  6
CONTINUOUS
370
     5
100
AcDbLine
 10
1.8401667
 20
-5.57977361
 30
0.0
 11
1.83903323
 21
-5.57771827
 31
0.0
  0
LINE
  5
2E9
100
AcDbEntity
  8
detail
 62
    16
  6
CONTINUOUS
370
     5
100
AcDbLine
 10
1.8413163
 20
-5.57721928
 30
0.0
 11
1.84033651
 21
-5.57623948
 31
0.0
  0
LINE
  5
2EA
100
AcDbEntity
  8
detail
 62
    16
  6
CONTINUOUS
370
     5
100
AcDbLine
 10
1.8413163
 20
-5.57623948
 30
0.0
 11
1.84033651
 21
-5.57721928
 31
0.0
  0
LINE
  5
2EB
100
AcDbEntity
  8
detail
 62
    16
  6
CENTER
370
     5
100
AcDbLine
 10
1.83944162
 20
-5.57672938
 30
0.0
 11
1.84221118
 21
-5.57672938
 31
0.0
  0
LINE
  5
2EC
100
AcDbEntity
  8
detail
 62
    16
  6
CENTER
370
     5
100
AcDbLine
 10
1.8408264
 20
-5.5780949
 30
0.0
 11
1.8408264
 21
-5.57538412
 31
0.0
  0
LINE
  5
2ED
100
AcDbEntity
  8
detail
 62
    16
  6
CENTER
370
     5
100
AcDbLine
 10
1.83677359
 20
-5.58124441
 30
0.0
 11
1.83588532
 21
-5.58124441
 31
0.0
  0
LINE
  5
2EE
100
AcDbEntity
  8
detail
 62
    16
  6
CENTER
370
     5
100
AcDbLine
 10
1.83632443
 20
-5.5816715
 30
0.0
 11
1.83632443
 21
-5.58080099
 31
0.0
  0
LINE
  5
2EF
100
AcDbEntity
  8
detail
 62
    16
  6
CONTINUOUS
370
     5
100
AcDbLine
 10
1.83807443
 20
-5.58378805
 30
0.0
 11
1.83457443
 21
-5.58378805
 31
0.0
  0
LINE
  5
2F0
100
AcDbEntity
  8
detail
 62
    16
  6
CONTINUOUS
370
     5
100
AcDbLine
 10
1.83475278
 20
-5.5830259
 30
0.0
 11
1.83589505
 21
-5.58092989
 31
0.0
  0
LINE
  5
2F1
100
AcDbEntity
  8
detail
 62
    16
  6
CONTINUOUS
370
     5
100
AcDbLine
 10
1.83789609
 20
-5.5830259
 30
0.0
 11
1.83675382
 21
-5.58092989
 31
0.0
  0
LINE
  5
2F2
100
AcDbEntity
  8
detail
 62
    16
  6
CONTINUOUS
370
     5
100
AcDbLine
 10
1.83717683
 20
-5.58803304
 30
0.0
 11
1.83632443
 21
-5.58803304
 31
0.0
  0
LINE
  5
2F3
100
AcDbEntity
  8
detail
 62
    16
  6
CONTINUOUS
370
     5
100
AcDbLine
 10
1.83508613
 20
-5.58378805
 30
0.0
 11
1.83477443
 21
-5.58378805
 31
0.0
  0
LINE
  5
2F4
100
AcDbEntity
  8
detail
 62
    16
  6
CONTINUOUS
370
     5
100
AcDbLine
 10
1.83632443
 20
-5.58793304
 30
0.0
 11
1.8373737
 21
-5.58793304
 31
0.0
  0
LINE
  5
2F5
100
AcDbEntity
  8
detail
 62
    16
  6
CONTINUOUS
370
     5
100
AcDbLine
 10
1.83495736
 20
-5.5838613
 30
0.0
 11
1.83508613
 21
-5.5838613
 31
0.0
  0
LINE
  5
2F6
100
AcDbEntity
  8
detail
 62
    16
  6
CONTINUOUS
370
     5
100
AcDbLine
 10
1.83797443
 20
-5.58403327
 30
0.0
 11
1.83797443
 21
-5.58775604
 31
0.0
  0
LINE
  5
2F7
100
AcDbEntity
  8
detail
 62
    16
  6
CONTINUOUS
370
     5
100
AcDbLine
 10
1.8355607
 20
-5.58383327
 30
0.0
 11
1.83787443
 21
-5.58383327
 31
0.0
  0
LINE
  5
2F8
100
AcDbEntity
  8
detail
 62
    16
  6
CONTINUOUS
370
     5
100
AcDbLine
 10
1.83495736
 20
-5.58396111
 30
0.0
 11
1.83495736
 21
-5.5838613
 31
0.0
  0
LINE
  5
2F9
100
AcDbEntity
  8
detail
 62
    16
  6
CONTINUOUS
370
     5
100
AcDbLine
 10
1.83807443
 20
-5.58383805
 30
0.0
 11
1.83807443
 21
-5.58775604
 31
0.0
  0
LINE
  5
2FA
100
AcDbEntity
  8
detail
 62
    16
  6
CONTINUOUS
370
     5
100
AcDbLine
 10
1.83467443
 20
-5.58838846
 30
0.0
 11
1.83467443
 21
-5.58794019
 31
0.0
  0
LINE
  5
2FB
100
AcDbEntity
  8
detail
 62
    16
  6
CONTINUOUS
370
     5
100
AcDbLine
 10
1.83726086
 20
-5.58808648
 30
0.0
 11
1.83740116
 21
-5.58800369
 31
0.0
  0
LINE
  5
2FC
100
AcDbEntity
  8
detail
 62
    16
  6
CONTINUOUS
370
     5
100
AcDbLine
 10
1.83457443
 20
-5.58398805
 30
0.0
 11
1.83457443
 21
-5.58838846
 31
0.0
  0
LINE
  5
2FD
100
AcDbEntity
  8
detail
 62
    16
  6
CONTINUOUS
370
     5
100
AcDbLine
 10
1.83661797
 20
-5.58843805
 30
0.0
 11
1.83739243
 21
-5.58843805
 31
0.0
  0
LINE
  5
2FE
100
AcDbEntity
  8
detail
 62
    16
  6
CONTINUOUS
370
     5
100
AcDbLine
 10
1.83467443
 20
-5.58398805
 30
0.0
 11
1.83467443
 21
-5.58808065
 31
0.0
  0
LINE
  5
2FF
100
AcDbEntity
  8
detail
 62
    16
  6
CONTINUOUS
370
     5
100
AcDbLine
 10
1.83713354
 20
-5.58833805
 30
0.0
 11
1.83661797
 21
-5.58833805
 31
0.0
  0
LINE
  5
300
100
AcDbEntity
  8
detail
 62
    16
  6
CONTINUOUS
370
     5
100
AcDbLine
 10
1.83727051
 20
-5.58833805
 30
0.0
 11
1.83739243
 21
-5.58833805
 31
0.0
  0
LINE
  5
301
100
AcDbEntity
  8
detail
 62
    16
  6
CONTINUOUS
370
     5
100
AcDbLine
 10
1.83558269
 20
-5.58393327
 30
0.0
 11
1.83787443
 21
-5.58393327
 31
0.0
  0
LINE
  5
302
100
AcDbEntity
  8
detail
 62
    16
  6
CONTINUOUS
370
     5
100
AcDbLine
 10
1.83535759
 20
-5.58378805
 30
0.0
 11
1.83548684
 21
-5.58378805
 31
0.0
  0
LINE
  5
303
100
AcDbEntity
  8
detail
 62
    16
  6
CONTINUOUS
370
     5
100
AcDbLine
 10
1.83495687
 20
-5.58406111
 30
0.0
 11
1.83548636
 21
-5.58406111
 31
0.0
  0
LINE
  5
304
100
AcDbEntity
  8
detail
 62
    16
  6
CONTINUOUS
370
     5
100
AcDbLine
 10
1.83798032
 20
-5.5838636
 30
0.0
 11
1.83798032
 21
-5.58381838
 31
0.0
  0
LINE
  5
305
100
AcDbEntity
  8
detail
 62
    16
  6
CONTINUOUS
370
     5
100
AcDbLine
 10
1.83548636
 20
-5.5838613
 30
0.0
 11
1.83535759
 21
-5.5838613
 31
0.0
  0
LINE
  5
306
100
AcDbEntity
  8
detail
 62
    16
  6
CONTINUOUS
370
     5
100
AcDbLine
 10
1.83662443
 20
-5.58558826
 30
0.0
 11
1.83602443
 21
-5.58558826
 31
0.0
  0
LINE
  5
307
100
AcDbEntity
  8
detail
 62
    16
  6
CONTINUOUS
370
     5
100
AcDbLine
 10
1.83602443
 20
-5.58558826
 30
0.0
 11
1.83602443
 21
-5.58618826
 31
0.0
  0
LINE
  5
308
100
AcDbEntity
  8
detail
 62
    16
  6
CONTINUOUS
370
     5
100
AcDbLine
 10
1.83602443
 20
-5.58618826
 30
0.0
 11
1.83662443
 21
-5.58618826
 31
0.0
  0
LINE
  5
309
100
AcDbEntity
  8
detail
 62
    16
  6
CONTINUOUS
370
     5
100
AcDbLine
 10
1.83662443
 20
-5.58558826
 30
0.0
 11
1.83662443
 21
-5.58618826
 31
0.0
  0
LINE
  5
30A
100
AcDbEntity
  8
detail
 62
    16
  6
CONTINUOUS
370
     5
100
AcDbLine
 10
1.83662443
 20
-5.58558826
 30
0.0
 11
1.83602443
 21
-5.58618826
 31
0.0
  0
LINE
  5
30B
100
AcDbEntity
  8
detail
 62
    16
  6
CONTINUOUS
370
     5
100
AcDbLine
 10
1.83662443
 20
-5.58618826
 30
0.0
 11
1.83602443
 21
-5.58558826
 31
0.0
  0
LINE
  5
30C
100
AcDbEntity
  8
detail
 62
    16
  6
CONTINUOUS
370
     5
100
AcDbLine
 10
1.83556976
 20
-5.58396672
 30
0.0
 11
1.83556976
 21
-5.58397819
 31
0.0
  0
LINE
  5
30D
100
AcDbEntity
  8
detail
 62
    16
  6
CONTINUOUS
370
     5
100
AcDbLine
 10
1.83508613
 20
-5.58378805
 30
0.0
 11
1.83508613
 21
-5.5838613
 31
0.0
  0
LINE
  5
30E
100
AcDbEntity
  8
detail
 62
    16
  6
CONTINUOUS
370
     5
100
AcDbLine
 10
1.83548636
 20
-5.58396111
 30
0.0
 11
1.83548636
 21
-5.5838613
 31
0.0
  0
LINE
  5
30F
100
AcDbEntity
  8
detail
 62
    16
  6
CONTINUOUS
370
     5
100
AcDbLine
 10
1.83535759
 20
-5.58378805
 30
0.0
 11
1.83535759
 21
-5.5838613
 31
0.0
  0
LINE
  5
310
100
AcDbEntity
  8
detail
 62
    16
  6
CONTINUOUS
370
     5
100
AcDbLine
 10
1.83495736
 20
-5.58396111
 30
0.0
 11
1.83548636
 21
-5.58396111
 31
0.0
  0
LINE
  5
311
100
AcDbEntity
  8
detail
 62
    16
  6
CONTINUOUS
370
     5
100
AcDbLine
 10
1.83697443
 20
-5.58851329
 30
0.0
 11
1.83457443
 21
-5.58851329
 31
0.0
  0
LINE
  5
312
100
AcDbEntity
  8
detail
 62
    16
  6
CONTINUOUS
370
     5
100
AcDbLine
 10
1.83275536
 20
-5.58620445
 30
0.0
 11
1.83282681
 21
-5.58670869
 31
0.0
  0
LINE
  5
313
100
AcDbEntity
  8
detail
 62
    16
  6
CONTINUOUS
370
     5
100
AcDbLine
 10
1.83787544
 20
-5.57795171
 30
0.0
 11
1.83787544
 21
-5.57550705
 31
0.0
  0
LINE
  5
314
100
AcDbEntity
  8
detail
 62
    16
  6
CONTINUOUS
370
     5
100
AcDbLine
 10
1.83996496
 20
-5.5809563
 30
0.0
 11
1.83823996
 21
-5.5809563
 31
0.0
  0
LINE
  5
315
100
AcDbEntity
  8
detail
 62
    16
  6
CONTINUOUS
370
     5
100
AcDbLine
 10
1.84723996
 20
-5.5809563
 30
0.0
 11
1.84551496
 21
-5.5809563
 31
0.0
  0
LINE
  5
316
100
AcDbEntity
  8
detail
 62
    16
  6
CONTINUOUS
370
     5
100
AcDbLine
 10
1.84226496
 20
-5.5809563
 30
0.0
 11
1.84321496
 21
-5.5809563
 31
0.0
  0
LINE
  5
317
100
AcDbEntity
  8
detail
 62
    16
  6
CONTINUOUS
370
     5
100
AcDbLine
 10
1.83823996
 20
-5.5806313
 30
0.0
 11
1.84723996
 21
-5.5806313
 31
0.0
  0
LINE
  5
318
100
AcDbEntity
  8
detail
 62
    16
  6
CONTINUOUS
370
     5
100
AcDbLine
 10
1.83823996
 20
-5.5819563
 30
0.0
 11
1.83823996
 21
-5.5815063
 31
0.0
  0
LINE
  5
319
100
AcDbEntity
  8
detail
 62
    16
  6
CONTINUOUS
370
     5
100
AcDbLine
 10
1.83823996
 20
-5.5806313
 30
0.0
 11
1.83823996
 21
-5.5809563
 31
0.0
  0
LINE
  5
31A
100
AcDbEntity
  8
detail
 62
    16
  6
CONTINUOUS
370
     5
100
AcDbLine
 10
1.84723996
 20
-5.5809563
 30
0.0
 11
1.84723996
 21
-5.5806313
 31
0.0
  0
LINE
  5
31B
100
AcDbEntity
  8
detail
 62
    16
  6
CONTINUOUS
370
     5
100
AcDbLine
 10
1.83823996
 20
-5.5868113
 30
0.0
 11
1.84723996
 21
-5.5868113
 31
0.0
  0
LINE
  5
31C
100
AcDbEntity
  8
detail
 62
    16
  6
CONTINUOUS
370
     5
100
AcDbLine
 10
1.83883996
 20
-5.58726021
 30
0.0
 11
1.83883996
 21
-5.5863624
 31
0.0
  0
LINE
  5
31D
100
AcDbEntity
  8
detail
 62
    16
  6
CONTINUOUS
370
     5
100
AcDbLine
 10
1.84673996
 20
-5.58726021
 30
0.0
 11
1.84673996
 21
-5.5863624
 31
0.0
  0
LINE
  5
31E
100
AcDbEntity
  8
detail
 62
    16
  6
CONTINUOUS
370
     5
100
AcDbLine
 10
1.84723996
 20
-5.5869813
 30
0.0
 11
1.84604369
 21
-5.5869813
 31
0.0
  0
LINE
  5
31F
100
AcDbEntity
  8
detail
 62
    16
  6
CONTINUOUS
370
     5
100
AcDbLine
 10
1.83915996
 20
-5.5868113
 30
0.0
 11
1.83915996
 21
-5.5865113
 31
0.0
  0
LINE
  5
320
100
AcDbEntity
  8
detail
 62
    16
  6
CONTINUOUS
370
     5
100
AcDbLine
 10
1.83915996
 20
-5.5865113
 30
0.0
 11
1.83851996
 21
-5.5865113
 31
0.0
  0
LINE
  5
321
100
AcDbEntity
  8
detail
 62
    16
  6
CONTINUOUS
370
     5
100
AcDbLine
 10
1.83851996
 20
-5.5868113
 30
0.0
 11
1.83851996
 21
-5.5865113
 31
0.0
  0
LINE
  5
322
100
AcDbEntity
  8
detail
 62
    16
  6
CONTINUOUS
370
     5
100
AcDbLine
 10
1.84705996
 20
-5.5868113
 30
0.0
 11
1.84705996
 21
-5.5865113
 31
0.0
  0
LINE
  5
323
100
AcDbEntity
  8
detail
 62
    16
  6
CONTINUOUS
370
     5
100
AcDbLine
 10
1.84705996
 20
-5.5865113
 30
0.0
 11
1.84641996
 21
-5.5865113
 31
0.0
  0
LINE
  5
324
100
AcDbEntity
  8
detail
 62
    16
  6
CONTINUOUS
370
     5
100
AcDbLine
 10
1.84641996
 20
-5.5868113
 30
0.0
 11
1.84641996
 21
-5.5865113
 31
0.0
  0
LINE
  5
325
100
AcDbEntity
  8
detail
 62
    16
  6
CONTINUOUS
370
     5
100
AcDbLine
 10
1.83823996
 20
-5.5869813
 30
0.0
 11
1.83943622
 21
-5.5869813
 31
0.0
  0
LINE
  5
326
100
AcDbEntity
  8
detail
 62
    16
  6
CONTINUOUS
370
     5
100
AcDbLine
 10
1.8460836
 20
-5.58833529
 30
0.0
 11
1.84599355
 21
-5.5870313
 31
0.0
  0
LINE
  5
327
100
AcDbEntity
  8
detail
 62
    16
  6
CONTINUOUS
370
     5
100
AcDbLine
 10
1.83939631
 20
-5.58833529
 30
0.0
 11
1.83948636
 21
-5.5870313
 31
0.0
  0
LINE
  5
328
100
AcDbEntity
  8
detail
 62
    16
  6
CONTINUOUS
370
     5
100
AcDbLine
 10
1.83823996
 20
-5.5869313
 30
0.0
 11
1.84723996
 21
-5.5869313
 31
0.0
  0
LINE
  5
329
100
AcDbEntity
  8
detail
 62
    16
  6
CONTINUOUS
370
     5
100
AcDbLine
 10
1.83996496
 20
-5.5819563
 30
0.0
 11
1.83823996
 21
-5.5819563
 31
0.0
  0
LINE
  5
32A
100
AcDbEntity
  8
detail
 62
    16
  6
CONTINUOUS
370
     5
100
AcDbLine
 10
1.83996496
 20
-5.5825063
 30
0.0
 11
1.83823996
 21
-5.5825063
 31
0.0
  0
LINE
  5
32B
100
AcDbEntity
  8
detail
 62
    16
  6
CONTINUOUS
370
     5
100
AcDbLine
 10
1.83823996
 20
-5.5845063
 30
0.0
 11
1.83996496
 21
-5.5845063
 31
0.0
  0
LINE
  5
32C
100
AcDbEntity
  8
detail
 62
    16
  6
CONTINUOUS
370
     5
100
AcDbLine
 10
1.83823996
 20
-5.5839563
 30
0.0
 11
1.83996496
 21
-5.5839563
 31
0.0
  0
LINE
  5
32D
100
AcDbEntity
  8
detail
 62
    16
  6
CONTINUOUS
370
     5
100
AcDbLine
 10
1.83823996
 20
-5.5835063
 30
0.0
 11
1.83996496
 21
-5.5835063
 31
0.0
  0
LINE
  5
32E
100
AcDbEntity
  8
detail
 62
    16
  6
CONTINUOUS
370
     5
100
AcDbLine
 10
1.83823996
 20
-5.5829563
 30
0.0
 11
1.83996496
 21
-5.5829563
 31
0.0
  0
LINE
  5
32F
100
AcDbEntity
  8
detail
 62
    16
  6
CONTINUOUS
370
     5
100
AcDbLine
 10
1.84723996
 20
-5.5819563
 30
0.0
 11
1.84551496
 21
-5.5819563
 31
0.0
  0
LINE
  5
330
100
AcDbEntity
  8
detail
 62
    16
  6
CONTINUOUS
370
     5
100
AcDbLine
 10
1.84723996
 20
-5.5825063
 30
0.0
 11
1.84551496
 21
-5.5825063
 31
0.0
  0
LINE
  5
331
100
AcDbEntity
  8
detail
 62
    16
  6
CONTINUOUS
370
     5
100
AcDbLine
 10
1.84551496
 20
-5.5829563
 30
0.0
 11
1.84723996
 21
-5.5829563
 31
0.0
  0
LINE
  5
332
100
AcDbEntity
  8
detail
 62
    16
  6
CONTINUOUS
370
     5
100
AcDbLine
 10
1.84523996
 20
-5.5842313
 30
0.0
 11
1.84523996
 21
-5.5842313
 31
0.0
  0
LINE
  5
333
100
AcDbEntity
  8
detail
 62
    16
  6
CONTINUOUS
370
     5
100
AcDbLine
 10
1.84723996
 20
-5.5839563
 30
0.0
 11
1.84551496
 21
-5.5839563
 31
0.0
  0
LINE
  5
334
100
AcDbEntity
  8
detail
 62
    16
  6
CONTINUOUS
370
     5
100
AcDbLine
 10
1.84723996
 20
-5.5845063
 30
0.0
 11
1.84551496
 21
-5.5845063
 31
0.0
  0
LINE
  5
335
100
AcDbEntity
  8
detail
 62
    16
  6
CONTINUOUS
370
     5
100
AcDbLine
 10
1.84723996
 20
-5.5835063
 30
0.0
 11
1.84551496
 21
-5.5835063
 31
0.0
  0
LINE
  5
336
100
AcDbEntity
  8
detail
 62
    16
  6
CONTINUOUS
370
     5
100
AcDbLine
 10
1.84226496
 20
-5.5829563
 30
0.0
 11
1.84321496
 21
-5.5829563
 31
0.0
  0
LINE
  5
337
100
AcDbEntity
  8
detail
 62
    16
  6
CONTINUOUS
370
     5
100
AcDbLine
 10
1.84226496
 20
-5.5835063
 30
0.0
 11
1.84321496
 21
-5.5835063
 31
0.0
  0
LINE
  5
338
100
AcDbEntity
  8
detail
 62
    16
  6
CONTINUOUS
370
     5
100
AcDbLine
 10
1.84226496
 20
-5.5839563
 30
0.0
 11
1.84321496
 21
-5.5839563
 31
0.0
  0
LINE
  5
339
100
AcDbEntity
  8
detail
 62
    16
  6
CONTINUOUS
370
     5
100
AcDbLine
 10
1.84226496
 20
-5.5845063
 30
0.0
 11
1.84321496
 21
-5.5845063
 31
0.0
  0
LINE
  5
33A
100
AcDbEntity
  8
detail
 62
    16
  6
CONTINUOUS
370
     5
100
AcDbLine
 10
1.84226496
 20
-5.5819563
 30
0.0
 11
1.84321496
 21
-5.5819563
 31
0.0
  0
LINE
  5
33B
100
AcDbEntity
  8
detail
 62
    16
  6
CONTINUOUS
370
     5
100
AcDbLine
 10
1.84226496
 20
-5.5825063
 30
0.0
 11
1.84321496
 21
-5.5825063
 31
0.0
  0
LINE
  5
33C
100
AcDbEntity
  8
detail
 62
    16
  6
CONTINUOUS
370
     5
100
AcDbLine
 10
1.83823996
 20
-5.5839563
 30
0.0
 11
1.83823996
 21
-5.5835063
 31
0.0
  0
LINE
  5
33D
100
AcDbEntity
  8
detail
 62
    16
  6
CONTINUOUS
370
     5
100
AcDbLine
 10
1.83823996
 20
-5.5829563
 30
0.0
 11
1.83823996
 21
-5.5825063
 31
0.0
  0
LINE
  5
33E
100
AcDbEntity
  8
detail
 62
    16
  6
CONTINUOUS
370
     5
100
AcDbLine
 10
1.84723996
 20
-5.5825063
 30
0.0
 11
1.84723996
 21
-5.5829563
 31
0.0
  0
LINE
  5
33F
100
AcDbEntity
  8
detail
 62
    16
  6
CONTINUOUS
370
     5
100
AcDbLine
 10
1.84723996
 20
-5.5839563
 30
0.0
 11
1.84723996
 21
-5.5835063
 31
0.0
  0
LINE
  5
340
100
AcDbEntity
  8
detail
 62
    16
  6
CONTINUOUS
370
     5
100
AcDbLine
 10
1.83823996
 20
-5.5869313
 30
0.0
 11
1.83823996
 21
-5.5845063
 31
0.0
  0
LINE
  5
341
100
AcDbEntity
  8
detail
 62
    16
  6
CONTINUOUS
370
     5
100
AcDbLine
 10
1.84723996
 20
-5.5869313
 30
0.0
 11
1.84723996
 21
-5.5845063
 31
0.0
  0
LINE
  5
342
100
AcDbEntity
  8
detail
 62
    16
  6
CONTINUOUS
370
     5
100
AcDbLine
 10
1.84723996
 20
-5.58923166
 30
0.0
 11
1.83823996
 21
-5.58923166
 31
0.0
  0
LINE
  5
343
100
AcDbEntity
  8
detail
 62
    16
  6
CONTINUOUS
370
     5
100
AcDbLine
 10
1.83823996
 20
-5.58923166
 30
0.0
 11
1.83823996
 21
-5.58918501
 31
0.0
  0
LINE
  5
344
100
AcDbEntity
  8
detail
 62
    16
  6
CONTINUOUS
370
     5
100
AcDbLine
 10
1.83823996
 20
-5.58918501
 30
0.0
 11
1.83829963
 21
-5.58908166
 31
0.0
  0
LINE
  5
345
100
AcDbEntity
  8
detail
 62
    16
  6
CONTINUOUS
370
     5
100
AcDbLine
 10
1.84723996
 20
-5.58923166
 30
0.0
 11
1.84723996
 21
-5.58918501
 31
0.0
  0
LINE
  5
346
100
AcDbEntity
  8
detail
 62
    16
  6
CONTINUOUS
370
     5
100
AcDbLine
 10
1.84723996
 20
-5.58918501
 30
0.0
 11
1.84718028
 21
-5.58908166
 31
0.0
  0
LINE
  5
347
100
AcDbEntity
  8
detail
 62
    16
  6
CONTINUOUS
370
     5
100
AcDbLine
 10
1.84718028
 20
-5.58908166
 30
0.0
 11
1.83829963
 21
-5.58908166
 31
0.0
  0
LINE
  5
348
100
AcDbEntity
  8
detail
 62
    16
  6
CONTINUOUS
370
     5
100
AcDbLine
 10
1.84040373
 20
-5.5878059
 30
0.0
 11
1.84040373
 21
-5.58908166
 31
0.0
  0
LINE
  5
349
100
AcDbEntity
  8
detail
 62
    16
  6
CONTINUOUS
370
     5
100
AcDbLine
 10
1.84040373
 20
-5.5878059
 30
0.0
 11
1.83994046
 21
-5.5878059
 31
0.0
  0
LINE
  5
34A
100
AcDbEntity
  8
detail
 62
    16
  6
CONTINUOUS
370
     5
100
AcDbLine
 10
1.84030373
 20
-5.5879059
 30
0.0
 11
1.84030373
 21
-5.58908166
 31
0.0
  0
LINE
  5
34B
100
AcDbEntity
  8
detail
 62
    16
  6
CONTINUOUS
370
     5
100
AcDbLine
 10
1.84520315
 20
-5.5879059
 30
0.0
 11
1.84520315
 21
-5.58908166
 31
0.0
  0
LINE
  5
34C
100
AcDbEntity
  8
detail
 62
    16
  6
CONTINUOUS
370
     5
100
AcDbLine
 10
1.83971585
 20
-5.5879059
 30
0.0
 11
1.84030373
 21
-5.58731802
 31
0.0
  0
LINE
  5
34D
100
AcDbEntity
  8
detail
 62
    16
  6
CONTINUOUS
370
     5
100
AcDbLine
 10
1.84030373
 20
-5.5879059
 30
0.0
 11
1.83971585
 21
-5.5879059
 31
0.0
  0
LINE
  5
34E
100
AcDbEntity
  8
detail
 62
    16
  6
CONTINUOUS
370
     5
100
AcDbLine
 10
1.84579102
 20
-5.5879059
 30
0.0
 11
1.84520315
 21
-5.58731802
 31
0.0
  0
LINE
  5
34F
100
AcDbEntity
  8
detail
 62
    16
  6
CONTINUOUS
370
     5
100
AcDbLine
 10
1.84520315
 20
-5.5879059
 30
0.0
 11
1.84579102
 21
-5.5879059
 31
0.0
  0
LINE
  5
350
100
AcDbEntity
  8
detail
 62
    16
  6
CONTINUOUS
370
     5
100
AcDbLine
 10
1.83994046
 20
-5.58780825
 30
0.0
 11
1.84036721
 21
-5.5873815
 31
0.0
  0
LINE
  5
351
100
AcDbEntity
  8
detail
 62
    16
  6
CONTINUOUS
370
     5
100
AcDbLine
 10
1.84510318
 20
-5.5878059
 30
0.0
 11
1.84510318
 21
-5.58908166
 31
0.0
  0
LINE
  5
352
100
AcDbEntity
  8
detail
 62
    16
  6
CONTINUOUS
370
     5
100
AcDbLine
 10
1.84510318
 20
-5.5878059
 30
0.0
 11
1.84556644
 21
-5.5878059
 31
0.0
  0
LINE
  5
353
100
AcDbEntity
  8
detail
 62
    16
  6
CONTINUOUS
370
     5
100
AcDbLine
 10
1.84556644
 20
-5.58780825
 30
0.0
 11
1.8451397
 21
-5.5873815
 31
0.0
  0
LINE
  5
354
100
AcDbEntity
  8
detail
 62
    16
  6
CONTINUOUS
370
     5
100
AcDbLine
 10
1.83275536
 20
-5.58620445
 30
0.0
 11
1.83275536
 21
-5.56875808
 31
0.0
  0
LINE
  5
355
100
AcDbEntity
  8
detail
 62
    16
  6
CONTINUOUS
370
     5
100
AcDbLine
 10
1.84265246
 20
-5.57421327
 30
0.0
 11
1.84330496
 21
-5.57486577
 31
0.0
  0
LINE
  5
356
100
AcDbEntity
  8
detail
 62
    16
  6
CONTINUOUS
370
     5
100
AcDbLine
 10
1.84213897
 20
-5.573815
 30
0.0
 11
1.84330496
 21
-5.57498099
 31
0.0
  0
LINE
  5
357
100
AcDbEntity
  8
detail
 62
    16
  6
CONTINUOUS
370
     5
100
AcDbLine
 10
1.84311917
 20
-5.57439906
 30
0.0
 11
1.84272647
 21
-5.57479176
 31
0.0
  0
LINE
  5
358
100
AcDbEntity
  8
detail
 62
    16
  6
CONTINUOUS
370
     5
100
AcDbLine
 10
1.84217914
 20
-5.57394637
 30
0.0
 11
1.84325936
 21
-5.57502659
 31
0.0
  0
LINE
  5
359
100
AcDbEntity
  8
detail
 62
    16
  6
CONTINUOUS
370
     5
100
AcDbLine
 10
1.84330496
 20
-5.57498099
 30
0.0
 11
1.84325656
 21
-5.57502938
 31
0.0
  0
LINE
  5
35A
100
AcDbEntity
  8
detail
 62
    16
  6
CONTINUOUS
370
     5
100
AcDbLine
 10
1.8331516
 20
-5.57665709
 30
0.0
 11
1.83313727
 21
-5.57627989
 31
0.0
  0
LINE
  5
35B
100
AcDbEntity
  8
detail
 62
    16
  6
CONTINUOUS
370
     5
100
AcDbLine
 10
1.83312085
 20
-5.57673196
 30
0.0
 11
1.83313747
 21
-5.57627438
 31
0.0
  0
LINE
  5
35C
100
AcDbEntity
  8
detail
 62
    16
  6
CONTINUOUS
370
     5
100
AcDbLine
 10
1.83301558
 20
-5.57682858
 30
0.0
 11
1.83309208
 21
-5.57678139
 31
0.0
  0
LINE
  5
35D
100
AcDbEntity
  8
detail
 62
    16
  6
CONTINUOUS
370
     5
100
AcDbLine
 10
1.83311364
 20
-5.58041739
 30
0.0
 11
1.83312286
 21
-5.57989596
 31
0.0
  0
LINE
  5
35E
100
AcDbEntity
  8
detail
 62
    16
  6
CONTINUOUS
370
     5
100
AcDbLine
 10
1.83308669
 20
-5.58041692
 30
0.0
 11
1.8330959
 21
-5.57989549
 31
0.0
  0
LINE
  5
35F
100
AcDbEntity
  8
detail
 62
    16
  6
CONTINUOUS
370
     5
100
AcDbLine
 10
1.83320205
 20
-5.57668691
 30
0.0
 11
1.83333971
 21
-5.57673052
 31
0.0
  0
LINE
  5
360
100
AcDbEntity
  8
detail
 62
    16
  6
CONTINUOUS
370
     5
100
AcDbLine
 10
1.8331939
 20
-5.57671262
 30
0.0
 11
1.83333157
 21
-5.57675622
 31
0.0
  0
LINE
  5
361
100
AcDbEntity
  8
detail
 62
    16
  6
CONTINUOUS
370
     5
100
AcDbLine
 10
1.83329268
 20
-5.58046194
 30
0.0
 11
1.8332343
 21
-5.5804309
 31
0.0
  0
LINE
  5
362
100
AcDbEntity
  8
detail
 62
    16
  6
CONTINUOUS
370
     5
100
AcDbLine
 10
1.83330853
 20
-5.58043818
 30
0.0
 11
1.83325016
 21
-5.58040715
 31
0.0
  0
LINE
  5
363
100
AcDbEntity
  8
detail
 62
    16
  6
CONTINUOUS
370
     5
100
AcDbLine
 10
1.83358005
 20
-5.57990816
 30
0.0
 11
1.83357543
 21
-5.58026182
 31
0.0
  0
LINE
  5
364
100
AcDbEntity
  8
detail
 62
    16
  6
CONTINUOUS
370
     5
100
AcDbLine
 10
1.83336366
 20
-5.58040825
 30
0.0
 11
1.83335866
 21
-5.58042208
 31
0.0
  0
LINE
  5
365
100
AcDbEntity
  8
detail
 62
    16
  6
CONTINUOUS
370
     5
100
AcDbLine
 10
1.8333244
 20
-5.58041442
 30
0.0
 11
1.83325825
 21
-5.58038143
 31
0.0
  0
LINE
  5
366
100
AcDbEntity
  8
detail
 62
    16
  6
CONTINUOUS
370
     5
100
AcDbLine
 10
1.83355309
 20
-5.57990781
 30
0.0
 11
1.83354696
 21
-5.58026408
 31
0.0
  0
LINE
  5
367
100
AcDbEntity
  8
detail
 62
    16
  6
CONTINUOUS
370
     5
100
AcDbLine
 10
1.83354696
 20
-5.58026408
 30
0.0
 11
1.83354053
 21
-5.57990774
 31
0.0
  0
LINE
  5
368
100
AcDbEntity
  8
detail
 62
    16
  6
CONTINUOUS
370
     5
100
AcDbLine
 10
1.83351847
 20
-5.58026634
 30
0.0
 11
1.83351357
 21
-5.57990811
 31
0.0
  0
LINE
  5
369
100
AcDbEntity
  8
detail
 62
    16
  6
CONTINUOUS
370
     5
100
AcDbLine
 10
1.83327404
 20
-5.58036141
 30
0.0
 11
1.83336366
 21
-5.58040825
 31
0.0
  0
LINE
  5
36A
100
AcDbEntity
  8
detail
 62
    16
  6
CONTINUOUS
370
     5
100
AcDbLine
 10
1.83293794
 20
-5.58199597
 30
0.0
 11
1.83291893
 21
-5.58194835
 31
0.0
  0
LINE
  5
36B
100
AcDbEntity
  8
detail
 62
    16
  6
CONTINUOUS
370
     5
100
AcDbLine
 10
1.83294369
 20
-5.5820487
 30
0.0
 11
1.83296723
 21
-5.58199662
 31
0.0
  0
LINE
  5
36C
100
AcDbEntity
  8
detail
 62
    16
  6
CONTINUOUS
370
     5
100
AcDbLine
 10
1.83296723
 20
-5.58199662
 30
0.0
 11
1.83294605
 21
-5.58194355
 31
0.0
  0
LINE
  5
36D
100
AcDbEntity
  8
detail
 62
    16
  6
CONTINUOUS
370
     5
100
AcDbLine
 10
1.8329849
 20
-5.58314483
 30
0.0
 11
1.83301161
 21
-5.5831886
 31
0.0
  0
LINE
  5
36E
100
AcDbEntity
  8
detail
 62
    16
  6
CONTINUOUS
370
     5
100
AcDbLine
 10
1.83301161
 20
-5.5831886
 30
0.0
 11
1.8329986
 21
-5.5832382
 31
0.0
  0
LINE
  5
36F
100
AcDbEntity
  8
detail
 62
    16
  6
CONTINUOUS
370
     5
100
AcDbLine
 10
1.83304059
 20
-5.58318435
 30
0.0
 11
1.8330261
 21
-5.58323962
 31
0.0
  0
LINE
  5
370
100
AcDbEntity
  8
detail
 62
    16
  6
CONTINUOUS
370
     5
100
AcDbLine
 10
1.83301083
 20
-5.58313556
 30
0.0
 11
1.83304059
 21
-5.58318435
 31
0.0
  0
LINE
  5
371
100
AcDbEntity
  8
detail
 62
    16
  6
CONTINUOUS
370
     5
100
AcDbLine
 10
1.83305969
 20
-5.58082076
 30
0.0
 11
1.8331337
 21
-5.58076975
 31
0.0
  0
LINE
  5
372
100
AcDbEntity
  8
detail
 62
    16
  6
CONTINUOUS
370
     5
100
AcDbLine
 10
1.83314827
 20
-5.58074151
 30
0.0
 11
1.83314162
 21
-5.58028368
 31
0.0
  0
LINE
  5
373
100
AcDbEntity
  8
detail
 62
    16
  6
CONTINUOUS
370
     5
100
AcDbLine
 10
1.83343884
 20
-5.58033215
 30
0.0
 11
1.83343817
 21
-5.58027958
 31
0.0
  0
LINE
  5
374
100
AcDbEntity
  8
detail
 62
    16
  6
CONTINUOUS
370
     5
100
AcDbLine
 10
1.83350428
 20
-5.58032541
 30
0.0
 11
1.83348981
 21
-5.58025117
 31
0.0
  0
LINE
  5
375
100
AcDbEntity
  8
detail
 62
    16
  6
CONTINUOUS
370
     5
100
AcDbLine
 10
1.83347782
 20
-5.58033055
 30
0.0
 11
1.83346231
 21
-5.58025231
 31
0.0
  0
LINE
  5
376
100
AcDbEntity
  8
detail
 62
    16
  6
CONTINUOUS
370
     5
100
AcDbLine
 10
1.8334658
 20
-5.58033194
 30
0.0
 11
1.83346316
 21
-5.5802571
 31
0.0
  0
LINE
  5
377
100
AcDbEntity
  8
detail
 62
    16
  6
CONTINUOUS
370
     5
100
AcDbLine
 10
1.83322899
 20
-5.58066239
 30
0.0
 11
1.83319601
 21
-5.58029189
 31
0.0
  0
LINE
  5
378
100
AcDbEntity
  8
detail
 62
    16
  6
CONTINUOUS
370
     5
100
AcDbLine
 10
1.83320214
 20
-5.58066478
 30
0.0
 11
1.83316866
 21
-5.58028879
 31
0.0
  0
LINE
  5
379
100
AcDbEntity
  8
detail
 62
    16
  6
CONTINUOUS
370
     5
100
AcDbLine
 10
1.83317523
 20
-5.58074112
 30
0.0
 11
1.83316858
 21
-5.58028328
 31
0.0
  0
LINE
  5
37A
100
AcDbEntity
  8
detail
 62
    16
  6
CONTINUOUS
370
     5
100
AcDbLine
 10
1.833075
 20
-5.58084296
 30
0.0
 11
1.833149
 21
-5.58079194
 31
0.0
  0
LINE
  5
37B
100
AcDbEntity
  8
detail
 62
    16
  6
CONTINUOUS
370
     5
100
AcDbLine
 10
1.83335518
 20
-5.58442216
 30
0.0
 11
1.8333379
 21
-5.58390094
 31
0.0
  0
LINE
  5
37C
100
AcDbEntity
  8
detail
 62
    16
  6
CONTINUOUS
370
     5
100
AcDbLine
 10
1.83332823
 20
-5.58442306
 30
0.0
 11
1.83331096
 21
-5.58390183
 31
0.0
  0
LINE
  5
37D
100
AcDbEntity
  8
detail
 62
    16
  6
CONTINUOUS
370
     5
100
AcDbLine
 10
1.83325403
 20
-5.58069201
 30
0.0
 11
1.83339373
 21
-5.58072856
 31
0.0
  0
LINE
  5
37E
100
AcDbEntity
  8
detail
 62
    16
  6
CONTINUOUS
370
     5
100
AcDbLine
 10
1.8332472
 20
-5.58071809
 30
0.0
 11
1.8333869
 21
-5.58075465
 31
0.0
  0
LINE
  5
37F
100
AcDbEntity
  8
detail
 62
    16
  6
CONTINUOUS
370
     5
100
AcDbLine
 10
1.83353624
 20
-5.58445756
 30
0.0
 11
1.83347637
 21
-5.58442953
 31
0.0
  0
LINE
  5
380
100
AcDbEntity
  8
detail
 62
    16
  6
CONTINUOUS
370
     5
100
AcDbLine
 10
1.83355088
 20
-5.58443303
 30
0.0
 11
1.833491
 21
-5.584405
 31
0.0
  0
LINE
  5
381
100
AcDbEntity
  8
detail
 62
    16
  6
CONTINUOUS
370
     5
100
AcDbLine
 10
1.83379513
 20
-5.5838899
 30
0.0
 11
1.83380847
 21
-5.58424334
 31
0.0
  0
LINE
  5
382
100
AcDbEntity
  8
detail
 62
    16
  6
CONTINUOUS
370
     5
100
AcDbLine
 10
1.83360441
 20
-5.58440034
 30
0.0
 11
1.83360012
 21
-5.5844144
 31
0.0
  0
LINE
  5
383
100
AcDbEntity
  8
detail
 62
    16
  6
CONTINUOUS
370
     5
100
AcDbLine
 10
1.83356551
 20
-5.58440849
 30
0.0
 11
1.83349778
 21
-5.5843789
 31
0.0
  0
LINE
  5
384
100
AcDbEntity
  8
detail
 62
    16
  6
CONTINUOUS
370
     5
100
AcDbLine
 10
1.83376818
 20
-5.58389092
 30
0.0
 11
1.83378015
 21
-5.58424704
 31
0.0
  0
LINE
  5
385
100
AcDbEntity
  8
detail
 62
    16
  6
CONTINUOUS
370
     5
100
AcDbLine
 10
1.83378015
 20
-5.58424704
 30
0.0
 11
1.83375564
 21
-5.58389149
 31
0.0
  0
LINE
  5
386
100
AcDbEntity
  8
detail
 62
    16
  6
CONTINUOUS
370
     5
100
AcDbLine
 10
1.83375182
 20
-5.58425074
 30
0.0
 11
1.83372873
 21
-5.58389322
 31
0.0
  0
LINE
  5
387
100
AcDbEntity
  8
detail
 62
    16
  6
CONTINUOUS
370
     5
100
AcDbLine
 10
1.83351253
 20
-5.5843581
 30
0.0
 11
1.83360441
 21
-5.58440034
 31
0.0
  0
LINE
  5
388
100
AcDbEntity
  8
detail
 62
    16
  6
CONTINUOUS
370
     5
100
AcDbLine
 10
1.8333884
 20
-5.59269845
 30
0.0
 11
1.83340501
 21
-5.59224087
 31
0.0
  0
LINE
  5
389
100
AcDbEntity
  8
detail
 62
    16
  6
CONTINUOUS
370
     5
100
AcDbLine
 10
1.83369938
 20
-5.59230437
 30
0.0
 11
1.83370138
 21
-5.59225184
 31
0.0
  0
LINE
  5
38A
100
AcDbEntity
  8
detail
 62
    16
  6
CONTINUOUS
370
     5
100
AcDbLine
 10
1.83376508
 20
-5.59230096
 30
0.0
 11
1.83375439
 21
-5.59222609
 31
0.0
  0
LINE
  5
38B
100
AcDbEntity
  8
detail
 62
    16
  6
CONTINUOUS
370
     5
100
AcDbLine
 10
1.83373839
 20
-5.59230475
 30
0.0
 11
1.83372688
 21
-5.59222582
 31
0.0
  0
LINE
  5
38C
100
AcDbEntity
  8
detail
 62
    16
  6
CONTINUOUS
370
     5
100
AcDbLine
 10
1.83372632
 20
-5.59230553
 30
0.0
 11
1.83372748
 21
-5.59223066
 31
0.0
  0
LINE
  5
38D
100
AcDbEntity
  8
detail
 62
    16
  6
CONTINUOUS
370
     5
100
AcDbLine
 10
1.83347303
 20
-5.59262353
 30
0.0
 11
1.8334589
 21
-5.59225183
 31
0.0
  0
LINE
  5
38E
100
AcDbEntity
  8
detail
 62
    16
  6
CONTINUOUS
370
     5
100
AcDbLine
 10
1.83344609
 20
-5.59262456
 30
0.0
 11
1.83343175
 21
-5.59224735
 31
0.0
  0
LINE
  5
38F
100
AcDbEntity
  8
detail
 62
    16
  6
CONTINUOUS
370
     5
100
AcDbLine
 10
1.83341534
 20
-5.59269942
 30
0.0
 11
1.83343195
 21
-5.59224184
 31
0.0
  0
LINE
  5
390
100
AcDbEntity
  8
detail
 62
    16
  6
CONTINUOUS
370
     5
100
AcDbLine
 10
1.83307736
 20
-5.58998472
 30
0.0
 11
1.83310083
 21
-5.58993913
 31
0.0
  0
LINE
  5
391
100
AcDbEntity
  8
detail
 62
    16
  6
CONTINUOUS
370
     5
100
AcDbLine
 10
1.83310083
 20
-5.58993913
 30
0.0
 11
1.83308427
 21
-5.5898906
 31
0.0
  0
LINE
  5
392
100
AcDbEntity
  8
detail
 62
    16
  6
CONTINUOUS
370
     5
100
AcDbLine
 10
1.8331039
 20
-5.58999208
 30
0.0
 11
1.83313005
 21
-5.58994127
 31
0.0
  0
LINE
  5
393
100
AcDbEntity
  8
detail
 62
    16
  6
CONTINUOUS
370
     5
100
AcDbLine
 10
1.83313005
 20
-5.58994127
 30
0.0
 11
1.83311159
 21
-5.58988719
 31
0.0
  0
LINE
  5
394
100
AcDbEntity
  8
detail
 62
    16
  6
CONTINUOUS
370
     5
100
AcDbLine
 10
1.83308939
 20
-5.59108889
 30
0.0
 11
1.83311384
 21
-5.59113396
 31
0.0
  0
LINE
  5
395
100
AcDbEntity
  8
detail
 62
    16
  6
CONTINUOUS
370
     5
100
AcDbLine
 10
1.83311384
 20
-5.59113396
 30
0.0
 11
1.83309833
 21
-5.59118283
 31
0.0
  0
LINE
  5
396
100
AcDbEntity
  8
detail
 62
    16
  6
CONTINUOUS
370
     5
100
AcDbLine
 10
1.833143
 20
-5.59113119
 30
0.0
 11
1.83312572
 21
-5.59118565
 31
0.0
  0
LINE
  5
397
100
AcDbEntity
  8
detail
 62
    16
  6
CONTINUOUS
370
     5
100
AcDbLine
 10
1.83311576
 20
-5.59108096
 30
0.0
 11
1.833143
 21
-5.59113119
 31
0.0
  0
LINE
  5
398
100
AcDbEntity
  8
detail
 62
    16
  6
CONTINUOUS
370
     5
100
AcDbLine
 10
1.83328211
 20
-5.58877162
 30
0.0
 11
1.8333586
 21
-5.58872443
 31
0.0
  0
LINE
  5
399
100
AcDbEntity
  8
detail
 62
    16
  6
CONTINUOUS
370
     5
100
AcDbLine
 10
1.83337459
 20
-5.58869697
 30
0.0
 11
1.8333912
 21
-5.58823939
 31
0.0
  0
LINE
  5
39A
100
AcDbEntity
  8
detail
 62
    16
  6
CONTINUOUS
370
     5
100
AcDbLine
 10
1.83368557
 20
-5.58830289
 30
0.0
 11
1.83368757
 21
-5.58825036
 31
0.0
  0
LINE
  5
39B
100
AcDbEntity
  8
detail
 62
    16
  6
CONTINUOUS
370
     5
100
AcDbLine
 10
1.83375127
 20
-5.58829948
 30
0.0
 11
1.83374059
 21
-5.58822461
 31
0.0
  0
LINE
  5
39C
100
AcDbEntity
  8
detail
 62
    16
  6
CONTINUOUS
370
     5
100
AcDbLine
 10
1.83372458
 20
-5.58830327
 30
0.0
 11
1.83371307
 21
-5.58822435
 31
0.0
  0
LINE
  5
39D
100
AcDbEntity
  8
detail
 62
    16
  6
CONTINUOUS
370
     5
100
AcDbLine
 10
1.83371251
 20
-5.58830405
 30
0.0
 11
1.83371367
 21
-5.58822918
 31
0.0
  0
LINE
  5
39E
100
AcDbEntity
  8
detail
 62
    16
  6
CONTINUOUS
370
     5
100
AcDbLine
 10
1.83345923
 20
-5.58862205
 30
0.0
 11
1.8334451
 21
-5.58825036
 31
0.0
  0
LINE
  5
39F
100
AcDbEntity
  8
detail
 62
    16
  6
CONTINUOUS
370
     5
100
AcDbLine
 10
1.83343228
 20
-5.58862308
 30
0.0
 11
1.83341795
 21
-5.58824587
 31
0.0
  0
LINE
  5
3A0
100
AcDbEntity
  8
detail
 62
    16
  6
CONTINUOUS
370
     5
100
AcDbLine
 10
1.83340153
 20
-5.58869795
 30
0.0
 11
1.83341815
 21
-5.58824037
 31
0.0
  0
LINE
  5
3A1
100
AcDbEntity
  8
detail
 62
    16
  6
CONTINUOUS
370
     5
100
AcDbLine
 10
1.83329626
 20
-5.58879456
 30
0.0
 11
1.83337276
 21
-5.58874738
 31
0.0
  0
LINE
  5
3A2
100
AcDbEntity
  8
detail
 62
    16
  6
CONTINUOUS
370
     5
100
AcDbLine
 10
1.83339432
 20
-5.59238338
 30
0.0
 11
1.83340354
 21
-5.59186195
 31
0.0
  0
LINE
  5
3A3
100
AcDbEntity
  8
detail
 62
    16
  6
CONTINUOUS
370
     5
100
AcDbLine
 10
1.83336737
 20
-5.5923829
 30
0.0
 11
1.83337658
 21
-5.59186147
 31
0.0
  0
LINE
  5
3A4
100
AcDbEntity
  8
detail
 62
    16
  6
CONTINUOUS
370
     5
100
AcDbLine
 10
1.83348273
 20
-5.5886529
 30
0.0
 11
1.83362039
 21
-5.58869651
 31
0.0
  0
LINE
  5
3A5
100
AcDbEntity
  8
detail
 62
    16
  6
CONTINUOUS
370
     5
100
AcDbLine
 10
1.83347459
 20
-5.5886786
 30
0.0
 11
1.83361225
 21
-5.58872221
 31
0.0
  0
LINE
  5
3A6
100
AcDbEntity
  8
detail
 62
    16
  6
CONTINUOUS
370
     5
100
AcDbLine
 10
1.83357336
 20
-5.59242793
 30
0.0
 11
1.83351498
 21
-5.59239689
 31
0.0
  0
LINE
  5
3A7
100
AcDbEntity
  8
detail
 62
    16
  6
CONTINUOUS
370
     5
100
AcDbLine
 10
1.83358922
 20
-5.59240417
 30
0.0
 11
1.83353084
 21
-5.59237313
 31
0.0
  0
LINE
  5
3A8
100
AcDbEntity
  8
detail
 62
    16
  6
CONTINUOUS
370
     5
100
AcDbLine
 10
1.83386073
 20
-5.59187415
 30
0.0
 11
1.83385611
 21
-5.59222781
 31
0.0
  0
LINE
  5
3A9
100
AcDbEntity
  8
detail
 62
    16
  6
CONTINUOUS
370
     5
100
AcDbLine
 10
1.83364434
 20
-5.59237424
 30
0.0
 11
1.83363935
 21
-5.59238807
 31
0.0
  0
LINE
  5
3AA
100
AcDbEntity
  8
detail
 62
    16
  6
CONTINUOUS
370
     5
100
AcDbLine
 10
1.83360508
 20
-5.59238041
 30
0.0
 11
1.83353893
 21
-5.59234742
 31
0.0
  0
LINE
  5
3AB
100
AcDbEntity
  8
detail
 62
    16
  6
CONTINUOUS
370
     5
100
AcDbLine
 10
1.83383377
 20
-5.5918738
 30
0.0
 11
1.83382764
 21
-5.59223007
 31
0.0
  0
LINE
  5
3AC
100
AcDbEntity
  8
detail
 62
    16
  6
CONTINUOUS
370
     5
100
AcDbLine
 10
1.83382764
 20
-5.59223007
 30
0.0
 11
1.83382121
 21
-5.59187372
 31
0.0
  0
LINE
  5
3AD
100
AcDbEntity
  8
detail
 62
    16
  6
CONTINUOUS
370
     5
100
AcDbLine
 10
1.83379916
 20
-5.59223232
 30
0.0
 11
1.83379425
 21
-5.59187409
 31
0.0
  0
LINE
  5
3AE
100
AcDbEntity
  8
detail
 62
    16
  6
CONTINUOUS
370
     5
100
AcDbLine
 10
1.83355473
 20
-5.5923274
 30
0.0
 11
1.83364434
 21
-5.59237424
 31
0.0
  0
LINE
  5
3AF
100
AcDbEntity
  8
detail
 62
    16
  6
CONTINUOUS
370
     5
100
AcDbLine
 10
1.83787544
 20
-5.57550705
 30
0.0
 11
1.83960407
 21
-5.57377841
 31
0.0
  0
LINE
  5
3B0
100
AcDbEntity
  8
detail
 62
    16
  6
CONTINUOUS
370
     5
100
AcDbLine
 10
1.83960407
 20
-5.57377841
 30
0.0
 11
1.84204874
 21
-5.57377841
 31
0.0
  0
LINE
  5
3B1
100
AcDbEntity
  8
detail
 62
    16
  6
CONTINUOUS
370
     5
100
AcDbLine
 10
1.84204874
 20
-5.57377841
 30
0.0
 11
1.84377737
 21
-5.57550705
 31
0.0
  0
LINE
  5
3B2
100
AcDbEntity
  8
detail
 62
    16
  6
CONTINUOUS
370
     5
100
AcDbLine
 10
1.84377737
 20
-5.57550705
 30
0.0
 11
1.84377737
 21
-5.57795171
 31
0.0
  0
LINE
  5
3B3
100
AcDbEntity
  8
detail
 62
    16
  6
CONTINUOUS
370
     5
100
AcDbLine
 10
1.84377737
 20
-5.57795171
 30
0.0
 11
1.84204874
 21
-5.57968035
 31
0.0
  0
LINE
  5
3B4
100
AcDbEntity
  8
detail
 62
    16
  6
CONTINUOUS
370
     5
100
AcDbLine
 10
1.84204874
 20
-5.57968035
 30
0.0
 11
1.83960407
 21
-5.57968035
 31
0.0
  0
LINE
  5
3B5
100
AcDbEntity
  8
detail
 62
    16
  6
CONTINUOUS
370
     5
100
AcDbLine
 10
1.83960407
 20
-5.57968035
 30
0.0
 11
1.83787544
 21
-5.57795171
 31
0.0
  0
LINE
  5
3B6
100
AcDbEntity
  8
detail
 62
    16
  6
CONTINUOUS
370
     5
100
AcDbLine
 10
1.83801431
 20
-5.57789418
 30
0.0
 11
1.83801431
 21
-5.57556457
 31
0.0
  0
LINE
  5
3B7
100
AcDbEntity
  8
detail
 62
    16
  6
CONTINUOUS
370
     5
100
AcDbLine
 10
1.83801431
 20
-5.57556457
 30
0.0
 11
1.8396616
 21
-5.57391729
 31
0.0
  0
LINE
  5
3B8
100
AcDbEntity
  8
detail
 62
    16
  6
CONTINUOUS
370
     5
100
AcDbLine
 10
1.8396616
 20
-5.57391729
 30
0.0
 11
1.84199121
 21
-5.57391729
 31
0.0
  0
LINE
  5
3B9
100
AcDbEntity
  8
detail
 62
    16
  6
CONTINUOUS
370
     5
100
AcDbLine
 10
1.84199121
 20
-5.57391729
 30
0.0
 11
1.84363849
 21
-5.57556457
 31
0.0
  0
LINE
  5
3BA
100
AcDbEntity
  8
detail
 62
    16
  6
CONTINUOUS
370
     5
100
AcDbLine
 10
1.84363849
 20
-5.57556457
 30
0.0
 11
1.84363849
 21
-5.57789418
 31
0.0
  0
LINE
  5
3BB
100
AcDbEntity
  8
detail
 62
    16
  6
CONTINUOUS
370
     5
100
AcDbLine
 10
1.84363849
 20
-5.57789418
 30
0.0
 11
1.84199121
 21
-5.57954147
 31
0.0
  0
LINE
  5
3BC
100
AcDbEntity
  8
detail
 62
    16
  6
CONTINUOUS
370
     5
100
AcDbLine
 10
1.84199121
 20
-5.57954147
 30
0.0
 11
1.8396616
 21
-5.57954147
 31
0.0
  0
LINE
  5
3BD
100
AcDbEntity
  8
detail
 62
    16
  6
CONTINUOUS
370
     5
100
AcDbLine
 10
1.8396616
 20
-5.57954147
 30
0.0
 11
1.83801431
 21
-5.57789418
 31
0.0
  0
LINE
  5
3BE
100
AcDbEntity
  8
detail
 62
    16
  6
CONTINUOUS
370
     5
100
AcDbLine
 10
1.84723996
 20
-5.5815063
 30
0.0
 11
1.84592844
 21
-5.5815063
 31
0.0
  0
LINE
  5
3BF
100
AcDbEntity
  8
detail
 62
    16
  6
CONTINUOUS
370
     5
100
AcDbLine
 10
1.83445793
 20
-5.58378805
 30
0.0
 11
1.83425578
 21
-5.58450365
 31
0.0
  0
LINE
  5
3C0
100
AcDbEntity
  8
detail
 62
    16
  6
CONTINUOUS
370
     5
100
AcDbLine
 10
1.83340594
 20
-5.58675006
 30
0.0
 11
1.83417989
 21
-5.58675006
 31
0.0
  0
LINE
  5
3C1
100
AcDbEntity
  8
detail
 62
    16
  6
CONTINUOUS
370
     5
100
AcDbLine
 10
1.84033651
 20
-5.57623948
 30
0.0
 11
1.84033651
 21
-5.57721928
 31
0.0
  0
LINE
  5
3C2
100
AcDbEntity
  8
detail
 62
    16
  6
CONTINUOUS
370
     5
100
AcDbLine
 10
1.84033651
 20
-5.57623948
 30
0.0
 11
1.8413163
 21
-5.57623948
 31
0.0
  0
LINE
  5
3C3
100
AcDbEntity
  8
detail
 62
    16
  6
CONTINUOUS
370
     5
100
AcDbLine
 10
1.8413163
 20
-5.57623948
 30
0.0
 11
1.8413163
 21
-5.57721928
 31
0.0
  0
LINE
  5
3C4
100
AcDbEntity
  8
detail
 62
    16
  6
CONTINUOUS
370
     5
100
AcDbLine
 10
1.84033651
 20
-5.57721928
 30
0.0
 11
1.8413163
 21
-5.57721928
 31
0.0
  0
LINE
  5
3C5
100
AcDbEntity
  8
detail
 62
    16
  6
CONTINUOUS
370
     5
100
AcDbLine
 10
1.83247443
 20
-5.58620445
 30
0.0
 11
1.83254238
 21
-5.58670869
 31
0.0
  0
ARC
  5
3C6
100
AcDbEntity
  8
detail
 62
    16
  6
CONTINUOUS
370
     5
100
AcDbCircle
 10
1.8408264
 20
-5.57672938
 30
0.0
 40
0.0046
100
AcDbArc
 50
11.491649
 51
81.823224
  0
ARC
  5
3C7
100
AcDbEntity
  8
detail
 62
    16
  6
CONTINUOUS
370
     5
100
AcDbCircle
 10
1.8408264
 20
-5.57672938
 30
0.0
 40
0.0039
100
AcDbArc
 50
89.461019
 51
3.853854
  0
ARC
  5
3C8
100
AcDbEntity
  8
detail
 62
    16
  6
CONTINUOUS
370
     5
100
AcDbCircle
 10
1.84018078
 20
-5.58646262
 30
0.0
 40
0.00711054
100
AcDbArc
 50
185.86280002
 51
195.70969702
  0
ARC
  5
3C9
100
AcDbEntity
  8
detail
 62
    16
  6
CONTINUOUS
370
     5
100
AcDbCircle
 10
1.84018078
 20
-5.58646262
 30
0.0
 40
0.0071375
100
AcDbArc
 50
176.187196
 51
185.06030502
  0
ARC
  5
3CA
100
AcDbEntity
  8
detail
 62
    16
  6
CONTINUOUS
370
     5
100
AcDbCircle
 10
1.84018078
 20
-5.58646262
 30
0.0
 40
0.0071375
100
AcDbArc
 50
185.81781302
 51
195.70969702
  0
ARC
  5
3CB
100
AcDbEntity
  8
detail
 62
    16
  6
CONTINUOUS
370
     5
100
AcDbCircle
 10
1.83357789
 20
-5.58475489
 30
0.0
 40
6.0662799995349E-05
100
AcDbArc
 50
329.61035302
 51
66.28708501
  0
ARC
  5
3CC
100
AcDbEntity
  8
detail
 62
    16
  6
CONTINUOUS
370
     5
100
AcDbCircle
 10
1.83358077
 20
-5.58475622
 30
0.0
 40
3.3701500001149E-05
100
AcDbArc
 50
1.20309698
 51
66.78799299
  0
ARC
  5
3CD
100
AcDbEntity
  8
detail
 62
    16
  6
CONTINUOUS
370
     5
100
AcDbCircle
 10
1.84018078
 20
-5.58646262
 30
0.0
 40
0.0071375
100
AcDbArc
 50
166.632902
 51
175.429689
  0
ARC
  5
3CE
100
AcDbEntity
  8
detail
 62
    16
  6
CONTINUOUS
370
     5
100
AcDbCircle
 10
1.84018078
 20
-5.58646262
 30
0.0
 40
0.00711054
100
AcDbArc
 50
166.632902
 51
175.384715
  0
ARC
  5
3CF
100
AcDbEntity
  8
detail
 62
    16
  6
CONTINUOUS
370
     5
100
AcDbCircle
 10
1.84018078
 20
-5.58646262
 30
0.0
 40
0.00711054
100
AcDbArc
 50
176.232189
 51
185.01532502
  0
ARC
  5
3D0
100
AcDbEntity
  8
detail
 62
    16
  6
CONTINUOUS
370
     5
100
AcDbCircle
 10
1.83651593
 20
-5.58611007
 30
0.0
 40
0.00320208
100
AcDbArc
 50
154.974186
 51
211.95055102
  0
ARC
  5
3D1
100
AcDbEntity
  8
detail
 62
    16
  6
CONTINUOUS
370
     5
100
AcDbCircle
 10
1.83651593
 20
-5.58611007
 30
0.0
 40
0.00317516
100
AcDbArc
 50
155.345613
 51
211.97619202
  0
ARC
  5
3D2
100
AcDbEntity
  8
detail
 62
    16
  6
CONTINUOUS
370
     5
100
AcDbCircle
 10
1.83334233
 20
-5.58838607
 30
0.0
 40
3.3701500000612E-05
100
AcDbArc
 50
195.70969701
 51
358.98758501
  0
ARC
  5
3D3
100
AcDbEntity
  8
detail
 62
    16
  6
CONTINUOUS
370
     5
100
AcDbCircle
 10
1.83358068
 20
-5.58786868
 30
0.0
 40
0.00022243
100
AcDbArc
 50
357.45217302
 51
178.98758
  0
ARC
  5
3D4
100
AcDbEntity
  8
detail
 62
    16
  6
CONTINUOUS
370
     5
100
AcDbCircle
 10
1.83334233
 20
-5.58838607
 30
0.0
 40
6.7403000012039E-06
100
AcDbArc
 50
195.70969709
 51
358.98758501
  0
ARC
  5
3D5
100
AcDbEntity
  8
detail
 62
    16
  6
CONTINUOUS
370
     5
100
AcDbCircle
 10
1.83358068
 20
-5.58786868
 30
0.0
 40
0.00019547
100
AcDbArc
 50
357.45217302
 51
178.98758
  0
ARC
  5
3D6
100
AcDbEntity
  8
detail
 62
    16
  6
CONTINUOUS
370
     5
100
AcDbCircle
 10
1.83368096
 20
-5.58786978
 30
0.0
 40
0.00013481
100
AcDbArc
 50
355.91910903
 51
28.92946498
  0
ARC
  5
3D7
100
AcDbEntity
  8
detail
 62
    16
  6
CONTINUOUS
370
     5
100
AcDbCircle
 10
1.83368096
 20
-5.58786978
 30
0.0
 40
0.00016177
100
AcDbArc
 50
355.91910901
 51
28.92946501
  0
ARC
  5
3D8
100
AcDbEntity
  8
detail
 62
    16
  6
CONTINUOUS
370
     5
100
AcDbCircle
 10
1.83354804
 20
-5.58424903
 30
0.0
 40
0.00017525
100
AcDbArc
 50
6.91623
 51
177.920678
  0
ARC
  5
3D9
100
AcDbEntity
  8
detail
 62
    16
  6
CONTINUOUS
370
     5
100
AcDbCircle
 10
1.83354804
 20
-5.58424903
 30
0.0
 40
0.00014829
100
AcDbArc
 50
8.297827
 51
177.920678
  0
ARC
  5
3DA
100
AcDbEntity
  8
detail
 62
    16
  6
CONTINUOUS
370
     5
100
AcDbCircle
 10
1.83354804
 20
-5.58424903
 30
0.0
 40
0.00012133
100
AcDbArc
 50
357.82107102
 51
182.17665402
  0
ARC
  5
3DB
100
AcDbEntity
  8
detail
 62
    16
  6
CONTINUOUS
370
     5
100
AcDbCircle
 10
1.83370028
 20
-5.58430743
 30
0.0
 40
3.3027500000660E-05
100
AcDbArc
 50
177.82105899
 51
8.12421699
  0
ARC
  5
3DC
100
AcDbEntity
  8
detail
 62
    16
  6
CONTINUOUS
370
     5
100
AcDbCircle
 10
1.83370028
 20
-5.58430743
 30
0.0
 40
6.0663000026136E-06
100
AcDbArc
 50
179.11150103
 51
8.29782693
  0
ARC
  5
3DD
100
AcDbEntity
  8
detail
 62
    16
  6
CONTINUOUS
370
     5
100
AcDbCircle
 10
1.83347461
 20
-5.58462405
 30
0.0
 40
6.0662800047127E-05
100
AcDbArc
 50
182.17665405
 51
252.42508099
  0
ARC
  5
3DE
100
AcDbEntity
  8
detail
 62
    16
  6
CONTINUOUS
370
     5
100
AcDbCircle
 10
1.83347461
 20
-5.58462405
 30
0.0
 40
3.3701500017115E-05
100
AcDbArc
 50
182.17665403
 51
252.425081
  0
ARC
  5
3DF
100
AcDbEntity
  8
detail
 62
    16
  6
CONTINUOUS
370
     5
100
AcDbCircle
 10
1.83332261
 20
-5.58469903
 30
0.0
 40
3.3701499920076E-05
100
AcDbArc
 50
301.66865795
 51
357.92068909
  0
ARC
  5
3E0
100
AcDbEntity
  8
detail
 62
    16
  6
CONTINUOUS
370
     5
100
AcDbCircle
 10
1.83329566
 20
-5.58482653
 30
0.0
 40
3.3701500074868E-05
100
AcDbArc
 50
121.66864706
 51
166.63290197
  0
ARC
  5
3E1
100
AcDbEntity
  8
detail
 62
    16
  6
CONTINUOUS
370
     5
100
AcDbCircle
 10
1.83332261
 20
-5.58469903
 30
0.0
 40
6.0662800027044E-05
100
AcDbArc
 50
301.66865802
 51
357.92068901
  0
ARC
  5
3E2
100
AcDbEntity
  8
detail
 62
    16
  6
CONTINUOUS
370
     5
100
AcDbCircle
 10
1.83329566
 20
-5.58482653
 30
0.0
 40
6.0662799948290E-05
100
AcDbArc
 50
121.66864699
 51
166.63290203
  0
ARC
  5
3E3
100
AcDbEntity
  8
detail
 62
    16
  6
CONTINUOUS
370
     5
100
AcDbCircle
 10
1.83351411
 20
-5.5883644
 30
0.0
 40
4.0441800000111E-05
100
AcDbArc
 50
56.51308499
 51
252.52613503
  0
ARC
  5
3E4
100
AcDbEntity
  8
detail
 62
    16
  6
CONTINUOUS
370
     5
100
AcDbCircle
 10
1.83351659
 20
-5.58836355
 30
0.0
 40
1.3480599997754E-05
100
AcDbArc
 50
72.52611996
 51
252.52613506
  0
ARC
  5
3E5
100
AcDbEntity
  8
detail
 62
    16
  6
CONTINUOUS
370
     5
100
AcDbCircle
 10
1.83363609
 20
-5.58824709
 30
0.0
 40
0.00014523
100
AcDbArc
 50
250.15309602
 51
4.535121
  0
ARC
  5
3E6
100
AcDbEntity
  8
detail
 62
    16
  6
CONTINUOUS
370
     5
100
AcDbCircle
 10
1.83363609
 20
-5.58824709
 30
0.0
 40
0.0001738
100
AcDbArc
 50
247.88434502
 51
4.535121
  0
ARC
  5
3E7
100
AcDbEntity
  8
detail
 62
    16
  6
CONTINUOUS
370
     5
100
AcDbCircle
 10
1.83363609
 20
-5.58824709
 30
0.0
 40
0.00020236
100
AcDbArc
 50
246.24700102
 51
4.535121
  0
ARC
  5
3E8
100
AcDbEntity
  8
detail
 62
    16
  6
CONTINUOUS
370
     5
100
AcDbCircle
 10
1.83453747
 20
-5.57180181
 30
0.0
 40
0.00022806
100
AcDbArc
 50
214.34961002
 51
49.645282
  0
ARC
  5
3E9
100
AcDbEntity
  8
detail
 62
    16
  6
CONTINUOUS
370
     5
100
AcDbCircle
 10
1.83453747
 20
-5.57180181
 30
0.0
 40
0.00031804
100
AcDbArc
 50
217.29213002
 51
27.829797
  0
ARC
  5
3EA
100
AcDbEntity
  8
detail
 62
    16
  6
CONTINUOUS
370
     5
100
AcDbCircle
 10
1.83608179
 20
-5.58501946
 30
0.0
 40
0.00189746
100
AcDbArc
 50
164.226014
 51
180.0
  0
ARC
  5
3EB
100
AcDbEntity
  8
detail
 62
    16
  6
CONTINUOUS
370
     5
100
AcDbCircle
 10
1.84007364
 20
-5.57536865
 30
0.0
 40
0.00711054
100
AcDbArc
 50
178.51218
 51
188.35908802
  0
ARC
  5
3EC
100
AcDbEntity
  8
detail
 62
    16
  6
CONTINUOUS
370
     5
100
AcDbCircle
 10
1.84007364
 20
-5.57536865
 30
0.0
 40
0.0071375
100
AcDbArc
 50
168.836587
 51
177.709685
  0
ARC
  5
3ED
100
AcDbEntity
  8
detail
 62
    16
  6
CONTINUOUS
370
     5
100
AcDbCircle
 10
1.84007364
 20
-5.57536865
 30
0.0
 40
0.0071375
100
AcDbArc
 50
178.467193
 51
188.35908802
  0
ARC
  5
3EE
100
AcDbEntity
  8
detail
 62
    16
  6
CONTINUOUS
370
     5
100
AcDbCircle
 10
1.83374351
 20
-5.57283018
 30
0.0
 40
6.0662800011712E-05
100
AcDbArc
 50
322.25974303
 51
58.93647598
  0
ARC
  5
3EF
100
AcDbEntity
  8
detail
 62
    16
  6
CONTINUOUS
370
     5
100
AcDbCircle
 10
1.8337462
 20
-5.57283186
 30
0.0
 40
3.3701499975311E-05
100
AcDbArc
 50
353.852498
 51
59.43738302
  0
ARC
  5
3F0
100
AcDbEntity
  8
detail
 62
    16
  6
CONTINUOUS
370
     5
100
AcDbCircle
 10
1.84007364
 20
-5.57536865
 30
0.0
 40
0.0071375
100
AcDbArc
 50
159.282293
 51
168.079079
  0
ARC
  5
3F1
100
AcDbEntity
  8
detail
 62
    16
  6
CONTINUOUS
370
     5
100
AcDbCircle
 10
1.84007364
 20
-5.57536865
 30
0.0
 40
0.00711054
100
AcDbArc
 50
159.282293
 51
168.034105
  0
ARC
  5
3F2
100
AcDbEntity
  8
detail
 62
    16
  6
CONTINUOUS
370
     5
100
AcDbCircle
 10
1.84007364
 20
-5.57536865
 30
0.0
 40
0.00711054
100
AcDbArc
 50
168.881579
 51
177.664705
  0
ARC
  5
3F3
100
AcDbEntity
  8
detail
 62
    16
  6
CONTINUOUS
370
     5
100
AcDbCircle
 10
1.83648402
 20
-5.57455012
 30
0.0
 40
0.00320208
100
AcDbArc
 50
147.623577
 51
204.59994102
  0
ARC
  5
3F4
100
AcDbEntity
  8
detail
 62
    16
  6
CONTINUOUS
370
     5
100
AcDbCircle
 10
1.83648402
 20
-5.57455012
 30
0.0
 40
0.00317516
100
AcDbArc
 50
147.995003
 51
204.62558202
  0
ARC
  5
3F5
100
AcDbEntity
  8
detail
 62
    16
  6
CONTINUOUS
370
     5
100
AcDbCircle
 10
1.83304531
 20
-5.57640138
 30
0.0
 40
3.3701500000971E-05
100
AcDbArc
 50
188.35908803
 51
351.63697603
  0
ARC
  5
3F6
100
AcDbEntity
  8
detail
 62
    16
  6
CONTINUOUS
370
     5
100
AcDbCircle
 10
1.83334789
 20
-5.57591874
 30
0.0
 40
0.00022243
100
AcDbArc
 50
350.10156402
 51
171.636971
  0
ARC
  5
3F7
100
AcDbEntity
  8
detail
 62
    16
  6
CONTINUOUS
370
     5
100
AcDbCircle
 10
1.83304531
 20
-5.57640138
 30
0.0
 40
6.7403000011015E-06
100
AcDbArc
 50
188.35908795
 51
351.63697613
  0
ARC
  5
3F8
100
AcDbEntity
  8
detail
 62
    16
  6
CONTINUOUS
370
     5
100
AcDbCircle
 10
1.83334789
 20
-5.57591874
 30
0.0
 40
0.00019547
100
AcDbArc
 50
350.10156402
 51
171.636971
  0
ARC
  5
3F9
100
AcDbEntity
  8
detail
 62
    16
  6
CONTINUOUS
370
     5
100
AcDbCircle
 10
1.83344721
 20
-5.57593266
 30
0.0
 40
0.00013481
100
AcDbArc
 50
348.56850001
 51
21.578856
  0
ARC
  5
3FA
100
AcDbEntity
  8
detail
 62
    16
  6
CONTINUOUS
370
     5
100
AcDbCircle
 10
1.83344721
 20
-5.57593266
 30
0.0
 40
0.00016177
100
AcDbArc
 50
348.56850002
 51
21.578856
  0
ARC
  5
3FB
100
AcDbEntity
  8
detail
 62
    16
  6
CONTINUOUS
370
     5
100
AcDbCircle
 10
1.83377862
 20
-5.57232465
 30
0.0
 40
0.00017525
100
AcDbArc
 50
359.56563102
 51
170.570069
  0
ARC
  5
3FC
100
AcDbEntity
  8
detail
 62
    16
  6
CONTINUOUS
370
     5
100
AcDbCircle
 10
1.83377862
 20
-5.57232465
 30
0.0
 40
0.00014829
100
AcDbArc
 50
0.947218
 51
170.570069
  0
ARC
  5
3FD
100
AcDbEntity
  8
detail
 62
    16
  6
CONTINUOUS
370
     5
100
AcDbCircle
 10
1.83377862
 20
-5.57232465
 30
0.0
 40
0.00012133
100
AcDbArc
 50
350.47046202
 51
174.826035
  0
ARC
  5
3FE
100
AcDbEntity
  8
detail
 62
    16
  6
CONTINUOUS
370
     5
100
AcDbCircle
 10
1.83392214
 20
-5.57240205
 30
0.0
 40
3.3027500002220E-05
100
AcDbArc
 50
170.47045
 51
0.77360799
  0
ARC
  5
3FF
100
AcDbEntity
  8
detail
 62
    16
  6
CONTINUOUS
370
     5
100
AcDbCircle
 10
1.83392214
 20
-5.57240205
 30
0.0
 40
6.0662999998294E-06
100
AcDbArc
 50
171.76089193
 51
0.94721802
  0
ARC
  5
400
100
AcDbEntity
  8
detail
 62
    16
  6
CONTINUOUS
370
     5
100
AcDbCircle
 10
1.83365781
 20
-5.5726872
 30
0.0
 40
6.0662800033886E-05
100
AcDbArc
 50
174.82603502
 51
245.074472
  0
ARC
  5
401
100
AcDbEntity
  8
detail
 62
    16
  6
CONTINUOUS
370
     5
100
AcDbCircle
 10
1.83365781
 20
-5.5726872
 30
0.0
 40
3.3701499980362E-05
100
AcDbArc
 50
174.82603497
 51
245.07447203
  0
ARC
  5
402
100
AcDbEntity
  8
detail
 62
    16
  6
CONTINUOUS
370
     5
100
AcDbCircle
 10
1.83349748
 20
-5.57274211
 30
0.0
 40
3.3701500049991E-05
100
AcDbArc
 50
294.31804906
 51
350.57007998
  0
ARC
  5
403
100
AcDbEntity
  8
detail
 62
    16
  6
CONTINUOUS
370
     5
100
AcDbCircle
 10
1.83345443
 20
-5.57286512
 30
0.0
 40
3.3701499946247E-05
100
AcDbArc
 50
114.31803797
 51
159.28229306
  0
ARC
  5
404
100
AcDbEntity
  8
detail
 62
    16
  6
CONTINUOUS
370
     5
100
AcDbCircle
 10
1.83349748
 20
-5.57274211
 30
0.0
 40
6.0662799946958E-05
100
AcDbArc
 50
294.31804898
 51
350.57008003
  0
ARC
  5
405
100
AcDbEntity
  8
detail
 62
    16
  6
CONTINUOUS
370
     5
100
AcDbCircle
 10
1.83345443
 20
-5.57286512
 30
0.0
 40
6.0662799984108E-05
100
AcDbArc
 50
114.31803799
 51
159.28229299
  0
ARC
  5
406
100
AcDbEntity
  8
detail
 62
    16
  6
CONTINUOUS
370
     5
100
AcDbCircle
 10
1.83321845
 20
-5.57640187
 30
0.0
 40
4.0441800004853E-05
100
AcDbArc
 50
49.162476
 51
245.17552501
  0
ARC
  5
407
100
AcDbEntity
  8
detail
 62
    16
  6
CONTINUOUS
370
     5
100
AcDbCircle
 10
1.83322102
 20
-5.57640134
 30
0.0
 40
1.3480600004810E-05
100
AcDbArc
 50
65.17551006
 51
245.17552499
  0
ARC
  5
408
100
AcDbEntity
  8
detail
 62
    16
  6
CONTINUOUS
370
     5
100
AcDbCircle
 10
1.83335443
 20
-5.57630112
 30
0.0
 40
0.00014523
100
AcDbArc
 50
242.80248702
 51
357.18452102
  0
ARC
  5
409
100
AcDbEntity
  8
detail
 62
    16
  6
CONTINUOUS
370
     5
100
AcDbCircle
 10
1.83335443
 20
-5.57630112
 30
0.0
 40
0.0001738
100
AcDbArc
 50
240.53373602
 51
357.18452102
  0
ARC
  5
40A
100
AcDbEntity
  8
detail
 62
    16
  6
CONTINUOUS
370
     5
100
AcDbCircle
 10
1.83335443
 20
-5.57630112
 30
0.0
 40
0.00020236
100
AcDbArc
 50
238.89639102
 51
357.18452102
  0
ARC
  5
40B
100
AcDbEntity
  8
detail
 62
    16
  6
CONTINUOUS
370
     5
100
AcDbCircle
 10
1.83991839
 20
-5.57849335
 30
0.0
 40
0.00711054
100
AcDbArc
 50
185.86280002
 51
195.70969702
  0
ARC
  5
40C
100
AcDbEntity
  8
detail
 62
    16
  6
CONTINUOUS
370
     5
100
AcDbCircle
 10
1.83991839
 20
-5.57849335
 30
0.0
 40
0.0071375
100
AcDbArc
 50
176.187196
 51
185.06030502
  0
ARC
  5
40D
100
AcDbEntity
  8
detail
 62
    16
  6
CONTINUOUS
370
     5
100
AcDbCircle
 10
1.83991839
 20
-5.57849335
 30
0.0
 40
0.0071375
100
AcDbArc
 50
185.81781302
 51
195.70969702
  0
ARC
  5
40E
100
AcDbEntity
  8
detail
 62
    16
  6
CONTINUOUS
370
     5
100
AcDbCircle
 10
1.83331551
 20
-5.57678562
 30
0.0
 40
6.0662799992319E-05
100
AcDbArc
 50
329.61035301
 51
66.28708501
  0
ARC
  5
40F
100
AcDbEntity
  8
detail
 62
    16
  6
CONTINUOUS
370
     5
100
AcDbCircle
 10
1.83331839
 20
-5.57678695
 30
0.0
 40
3.3701500016186E-05
100
AcDbArc
 50
1.20309702
 51
66.78799298
  0
ARC
  5
410
100
AcDbEntity
  8
detail
 62
    16
  6
CONTINUOUS
370
     5
100
AcDbCircle
 10
1.83991839
 20
-5.57849335
 30
0.0
 40
0.0071375
100
AcDbArc
 50
166.632902
 51
175.429689
  0
ARC
  5
411
100
AcDbEntity
  8
detail
 62
    16
  6
CONTINUOUS
370
     5
100
AcDbCircle
 10
1.83991839
 20
-5.57849335
 30
0.0
 40
0.00711054
100
AcDbArc
 50
166.632902
 51
175.384715
  0
ARC
  5
412
100
AcDbEntity
  8
detail
 62
    16
  6
CONTINUOUS
370
     5
100
AcDbCircle
 10
1.83991839
 20
-5.57849335
 30
0.0
 40
0.00711054
100
AcDbArc
 50
176.232189
 51
185.01532502
  0
ARC
  5
413
100
AcDbEntity
  8
detail
 62
    16
  6
CONTINUOUS
370
     5
100
AcDbCircle
 10
1.83625354
 20
-5.57814081
 30
0.0
 40
0.00320208
100
AcDbArc
 50
154.974186
 51
211.95055102
  0
ARC
  5
414
100
AcDbEntity
  8
detail
 62
    16
  6
CONTINUOUS
370
     5
100
AcDbCircle
 10
1.83625354
 20
-5.57814081
 30
0.0
 40
0.00317516
100
AcDbArc
 50
155.345613
 51
211.97619202
  0
ARC
  5
415
100
AcDbEntity
  8
detail
 62
    16
  6
CONTINUOUS
370
     5
100
AcDbCircle
 10
1.83307995
 20
-5.5804168
 30
0.0
 40
3.3701500000415E-05
100
AcDbArc
 50
195.70969701
 51
358.98758502
  0
ARC
  5
416
100
AcDbEntity
  8
detail
 62
    16
  6
CONTINUOUS
370
     5
100
AcDbCircle
 10
1.8333183
 20
-5.57989942
 30
0.0
 40
0.00022243
100
AcDbArc
 50
357.45217302
 51
178.98758
  0
ARC
  5
417
100
AcDbEntity
  8
detail
 62
    16
  6
CONTINUOUS
370
     5
100
AcDbCircle
 10
1.83307995
 20
-5.5804168
 30
0.0
 40
6.7403000017073E-06
100
AcDbArc
 50
195.70969708
 51
358.9875849
  0
ARC
  5
418
100
AcDbEntity
  8
detail
 62
    16
  6
CONTINUOUS
370
     5
100
AcDbCircle
 10
1.8333183
 20
-5.57989942
 30
0.0
 40
0.00019547
100
AcDbArc
 50
357.45217302
 51
178.98758
  0
ARC
  5
419
100
AcDbEntity
  8
detail
 62
    16
  6
CONTINUOUS
370
     5
100
AcDbCircle
 10
1.83341858
 20
-5.57990051
 30
0.0
 40
0.00013481
100
AcDbArc
 50
355.91910903
 51
28.92946499
  0
ARC
  5
41A
100
AcDbEntity
  8
detail
 62
    16
  6
CONTINUOUS
370
     5
100
AcDbCircle
 10
1.83341858
 20
-5.57990051
 30
0.0
 40
0.00016177
100
AcDbArc
 50
355.91910901
 51
28.929465
  0
ARC
  5
41B
100
AcDbEntity
  8
detail
 62
    16
  6
CONTINUOUS
370
     5
100
AcDbCircle
 10
1.83328565
 20
-5.57627976
 30
0.0
 40
0.00017525
100
AcDbArc
 50
6.91623
 51
177.920678
  0
ARC
  5
41C
100
AcDbEntity
  8
detail
 62
    16
  6
CONTINUOUS
370
     5
100
AcDbCircle
 10
1.83328565
 20
-5.57627976
 30
0.0
 40
0.00014829
100
AcDbArc
 50
8.297827
 51
177.92067799
  0
ARC
  5
41D
100
AcDbEntity
  8
detail
 62
    16
  6
CONTINUOUS
370
     5
100
AcDbCircle
 10
1.83328565
 20
-5.57627976
 30
0.0
 40
0.00012133
100
AcDbArc
 50
357.82107102
 51
182.17665401
  0
ARC
  5
41E
100
AcDbEntity
  8
detail
 62
    16
  6
CONTINUOUS
370
     5
100
AcDbCircle
 10
1.8334379
 20
-5.57633816
 30
0.0
 40
3.3027500001248E-05
100
AcDbArc
 50
177.821059
 51
8.12421701
  0
ARC
  5
41F
100
AcDbEntity
  8
detail
 62
    16
  6
CONTINUOUS
370
     5
100
AcDbCircle
 10
1.8334379
 20
-5.57633816
 30
0.0
 40
6.0663000026248E-06
100
AcDbArc
 50
179.11150103
 51
8.29782691
  0
ARC
  5
420
100
AcDbEntity
  8
detail
 62
    16
  6
CONTINUOUS
370
     5
100
AcDbCircle
 10
1.83321222
 20
-5.57665479
 30
0.0
 40
6.0662800031702E-05
100
AcDbArc
 50
182.17665403
 51
252.425081
  0
ARC
  5
421
100
AcDbEntity
  8
detail
 62
    16
  6
CONTINUOUS
370
     5
100
AcDbCircle
 10
1.83321222
 20
-5.57665479
 30
0.0
 40
3.3701500023405E-05
100
AcDbArc
 50
182.17665404
 51
252.42508099
  0
ARC
  5
422
100
AcDbEntity
  8
detail
 62
    16
  6
CONTINUOUS
370
     5
100
AcDbCircle
 10
1.83306023
 20
-5.57672976
 30
0.0
 40
3.3701499941253E-05
100
AcDbArc
 50
301.66865798
 51
357.92068907
  0
ARC
  5
423
100
AcDbEntity
  8
detail
 62
    16
  6
CONTINUOUS
370
     5
100
AcDbCircle
 10
1.83303327
 20
-5.57685726
 30
0.0
 40
3.3701500044963E-05
100
AcDbArc
 50
121.66864703
 51
166.63290197
  0
ARC
  5
424
100
AcDbEntity
  8
detail
 62
    16
  6
CONTINUOUS
370
     5
100
AcDbCircle
 10
1.83306023
 20
-5.57672976
 30
0.0
 40
6.0662800024614E-05
100
AcDbArc
 50
301.66865802
 51
357.92068901
  0
ARC
  5
425
100
AcDbEntity
  8
detail
 62
    16
  6
CONTINUOUS
370
     5
100
AcDbCircle
 10
1.83303327
 20
-5.57685726
 30
0.0
 40
6.0662799968361E-05
100
AcDbArc
 50
121.66864699
 51
166.63290201
  0
ARC
  5
426
100
AcDbEntity
  8
detail
 62
    16
  6
CONTINUOUS
370
     5
100
AcDbCircle
 10
1.83325173
 20
-5.58039514
 30
0.0
 40
4.0441800005386E-05
100
AcDbArc
 50
56.513085
 51
252.52613502
  0
ARC
  5
427
100
AcDbEntity
  8
detail
 62
    16
  6
CONTINUOUS
370
     5
100
AcDbCircle
 10
1.83325421
 20
-5.58039429
 30
0.0
 40
1.3480600001777E-05
100
AcDbArc
 50
72.52611999
 51
252.52613505
  0
ARC
  5
428
100
AcDbEntity
  8
detail
 62
    16
  6
CONTINUOUS
370
     5
100
AcDbCircle
 10
1.8333737
 20
-5.58027782
 30
0.0
 40
0.00014523
100
AcDbArc
 50
250.15309602
 51
4.535121
  0
ARC
  5
429
100
AcDbEntity
  8
detail
 62
    16
  6
CONTINUOUS
370
     5
100
AcDbCircle
 10
1.8333737
 20
-5.58027782
 30
0.0
 40
0.0001738
100
AcDbArc
 50
247.88434502
 51
4.535121
  0
ARC
  5
42A
100
AcDbEntity
  8
detail
 62
    16
  6
CONTINUOUS
370
     5
100
AcDbCircle
 10
1.8333737
 20
-5.58027782
 30
0.0
 40
0.00020236
100
AcDbArc
 50
246.24700102
 51
4.535121
  0
ARC
  5
42B
100
AcDbEntity
  8
detail
 62
    16
  6
CONTINUOUS
370
     5
100
AcDbCircle
 10
1.84586509
 20
-5.5729247
 30
0.0
 40
0.00026944
100
AcDbArc
 50
270.00001002
 51
90.0
  0
ARC
  5
42C
100
AcDbEntity
  8
detail
 62
    16
  6
CONTINUOUS
370
     5
100
AcDbCircle
 10
1.8362141
 20
-5.5729247
 30
0.0
 40
0.00026944
100
AcDbArc
 50
90.0
 51
270.00001002
  0
ARC
  5
42D
100
AcDbEntity
  8
detail
 62
    16
  6
CONTINUOUS
370
     5
100
AcDbCircle
 10
1.84586509
 20
-5.57946376
 30
0.0
 40
0.00026944
100
AcDbArc
 50
270.00001002
 51
90.0
  0
ARC
  5
42E
100
AcDbEntity
  8
detail
 62
    16
  6
CONTINUOUS
370
     5
100
AcDbCircle
 10
1.8362141
 20
-5.57946376
 30
0.0
 40
0.00026944
100
AcDbArc
 50
90.0
 51
270.00001002
  0
ARC
  5
42F
100
AcDbEntity
  8
detail
 62
    16
  6
CONTINUOUS
370
     5
100
AcDbCircle
 10
1.83281113
 20
-5.56852241
 30
0.0
 40
0.0003453
100
AcDbArc
 50
52.122858
 51
167.184791
  0
ARC
  5
430
100
AcDbEntity
  8
detail
 62
    16
  6
CONTINUOUS
370
     5
100
AcDbCircle
 10
1.83291866
 20
-5.56877494
 30
0.0
 40
0.00016417
100
AcDbArc
 50
47.899533
 51
174.105762
  0
ARC
  5
431
100
AcDbEntity
  8
detail
 62
    16
  6
CONTINUOUS
370
     5
100
AcDbCircle
 10
1.84586509
 20
-5.58124441
 30
0.0
 40
0.00026944
100
AcDbArc
 50
270.00001002
 51
90.0
  0
ARC
  5
432
100
AcDbEntity
  8
detail
 62
    16
  6
CONTINUOUS
370
     5
100
AcDbCircle
 10
1.8362141
 20
-5.58124441
 30
0.0
 40
0.00026944
100
AcDbArc
 50
90.0
 51
270.00001002
  0
ARC
  5
433
100
AcDbEntity
  8
detail
 62
    16
  6
CONTINUOUS
370
     5
100
AcDbCircle
 10
1.83275536
 20
-5.57191396
 30
0.0
 40
0.00031277
100
AcDbArc
 50
270.00001002
 51
9.3300731444249E-10
  0
ARC
  5
434
100
AcDbEntity
  8
detail
 62
    16
  6
CONTINUOUS
370
     5
100
AcDbCircle
 10
1.84658018
 20
-5.57481319
 30
0.0
 40
0.00051201
100
AcDbArc
 50
270.00001002
 51
360.00001002
  0
ARC
  5
435
100
AcDbEntity
  8
detail
 62
    16
  6
CONTINUOUS
370
     5
100
AcDbCircle
 10
1.84658018
 20
-5.57070923
 30
0.0
 40
0.00051201
100
AcDbArc
 50
360.00001002
 51
90.0
  0
ARC
  5
436
100
AcDbEntity
  8
detail
 62
    16
  6
CONTINUOUS
370
     5
100
AcDbCircle
 10
1.84658018
 20
-5.58183467
 30
0.0
 40
0.00051201
100
AcDbArc
 50
270.00001002
 51
1.0584739199405E-09
  0
ARC
  5
437
100
AcDbEntity
  8
detail
 62
    16
  6
CONTINUOUS
370
     5
100
AcDbCircle
 10
1.8362141
 20
-5.57672938
 30
0.0
 40
0.00140418
100
AcDbArc
 50
90.0
 51
270.00001002
  0
ARC
  5
438
100
AcDbEntity
  8
detail
 62
    16
  6
CONTINUOUS
370
     5
100
AcDbCircle
 10
1.84658018
 20
-5.57864557
 30
0.0
 40
0.00051201
100
AcDbArc
 50
360.00001002
 51
90.0
  0
ARC
  5
439
100
AcDbEntity
  8
detail
 62
    16
  6
CONTINUOUS
370
     5
100
AcDbCircle
 10
1.84005344
 20
-5.58215504
 30
0.0
 40
0.00711054
100
AcDbArc
 50
188.77363702
 51
198.62053502
  0
ARC
  5
43A
100
AcDbEntity
  8
detail
 62
    16
  6
CONTINUOUS
370
     5
100
AcDbCircle
 10
1.84005344
 20
-5.58215504
 30
0.0
 40
0.0071375
100
AcDbArc
 50
179.098034
 51
187.97114302
  0
ARC
  5
43B
100
AcDbEntity
  8
detail
 62
    16
  6
CONTINUOUS
370
     5
100
AcDbCircle
 10
1.84005344
 20
-5.58215504
 30
0.0
 40
0.0071375
100
AcDbArc
 50
188.72865102
 51
198.62053502
  0
ARC
  5
43C
100
AcDbEntity
  8
detail
 62
    16
  6
CONTINUOUS
370
     5
100
AcDbCircle
 10
1.83337235
 20
-5.58078482
 30
0.0
 40
6.0662800014925E-05
100
AcDbArc
 50
332.52119103
 51
69.19792299
  0
ARC
  5
43D
100
AcDbEntity
  8
detail
 62
    16
  6
CONTINUOUS
370
     5
100
AcDbCircle
 10
1.8333753
 20
-5.580786
 30
0.0
 40
3.3701500028979E-05
100
AcDbArc
 50
4.113935
 51
69.69883095
  0
ARC
  5
43E
100
AcDbEntity
  8
detail
 62
    16
  6
CONTINUOUS
370
     5
100
AcDbCircle
 10
1.84005344
 20
-5.58215504
 30
0.0
 40
0.0071375
100
AcDbArc
 50
169.54374
 51
178.340526
  0
ARC
  5
43F
100
AcDbEntity
  8
detail
 62
    16
  6
CONTINUOUS
370
     5
100
AcDbCircle
 10
1.84005344
 20
-5.58215504
 30
0.0
 40
0.00711054
100
AcDbArc
 50
169.54374
 51
178.295553
  0
ARC
  5
440
100
AcDbEntity
  8
detail
 62
    16
  6
CONTINUOUS
370
     5
100
AcDbCircle
 10
1.84005344
 20
-5.58215504
 30
0.0
 40
0.00711054
100
AcDbArc
 50
179.143027
 51
187.92616302
  0
ARC
  5
441
100
AcDbEntity
  8
detail
 62
    16
  6
CONTINUOUS
370
     5
100
AcDbCircle
 10
1.83637542
 20
-5.58198906
 30
0.0
 40
0.00320208
100
AcDbArc
 50
157.885024
 51
214.86138902
  0
ARC
  5
442
100
AcDbEntity
  8
detail
 62
    16
  6
CONTINUOUS
370
     5
100
AcDbCircle
 10
1.83637542
 20
-5.58198906
 30
0.0
 40
0.00317516
100
AcDbArc
 50
158.25645
 51
214.88703002
  0
ARC
  5
443
100
AcDbEntity
  8
detail
 62
    16
  6
CONTINUOUS
370
     5
100
AcDbCircle
 10
1.8333215
 20
-5.58442328
 30
0.0
 40
3.3701499999202E-05
100
AcDbArc
 50
198.62053503
 51
1.898413
  0
ARC
  5
444
100
AcDbEntity
  8
detail
 62
    16
  6
CONTINUOUS
370
     5
100
AcDbCircle
 10
1.83353327
 20
-5.58389446
 30
0.0
 40
0.00022243
100
AcDbArc
 50
0.363001
 51
181.89842802
  0
ARC
  5
445
100
AcDbEntity
  8
detail
 62
    16
  6
CONTINUOUS
370
     5
100
AcDbCircle
 10
1.8333215
 20
-5.58442328
 30
0.0
 40
6.7402999986384E-06
100
AcDbArc
 50
198.62053496
 51
1.89841309
  0
ARC
  5
446
100
AcDbEntity
  8
detail
 62
    16
  6
CONTINUOUS
370
     5
100
AcDbCircle
 10
1.83353327
 20
-5.58389446
 30
0.0
 40
0.00019547
100
AcDbArc
 50
0.363001
 51
181.89842802
  0
ARC
  5
447
100
AcDbEntity
  8
detail
 62
    16
  6
CONTINUOUS
370
     5
100
AcDbCircle
 10
1.83363347
 20
-5.58389047
 30
0.0
 40
0.00013481
100
AcDbArc
 50
358.829947
 51
31.84030303
  0
ARC
  5
448
100
AcDbEntity
  8
detail
 62
    16
  6
CONTINUOUS
370
     5
100
AcDbCircle
 10
1.83363347
 20
-5.58389047
 30
0.0
 40
0.00016177
100
AcDbArc
 50
358.82994702
 51
31.840303
  0
ARC
  5
449
100
AcDbEntity
  8
detail
 62
    16
  6
CONTINUOUS
370
     5
100
AcDbCircle
 10
1.83331685
 20
-5.58028113
 30
0.0
 40
0.00017525
100
AcDbArc
 50
9.827068
 51
180.83152602
  0
ARC
  5
44A
100
AcDbEntity
  8
detail
 62
    16
  6
CONTINUOUS
370
     5
100
AcDbCircle
 10
1.83331685
 20
-5.58028113
 30
0.0
 40
0.00014829
100
AcDbArc
 50
11.208665
 51
180.83152602
  0
ARC
  5
44B
100
AcDbEntity
  8
detail
 62
    16
  6
CONTINUOUS
370
     5
100
AcDbCircle
 10
1.83331685
 20
-5.58028113
 30
0.0
 40
0.00012133
100
AcDbArc
 50
0.731899
 51
185.08749202
  0
ARC
  5
44C
100
AcDbEntity
  8
detail
 62
    16
  6
CONTINUOUS
370
     5
100
AcDbCircle
 10
1.83347187
 20
-5.58033173
 30
0.0
 40
3.3027500002173E-05
100
AcDbArc
 50
180.73190702
 51
11.035055
  0
ARC
  5
44D
100
AcDbEntity
  8
detail
 62
    16
  6
CONTINUOUS
370
     5
100
AcDbCircle
 10
1.83347187
 20
-5.58033173
 30
0.0
 40
6.0662999957294E-06
100
AcDbArc
 50
182.02234905
 51
11.2086651
  0
ARC
  5
44E
100
AcDbEntity
  8
detail
 62
    16
  6
CONTINUOUS
370
     5
100
AcDbCircle
 10
1.83326256
 20
-5.5806594
 30
0.0
 40
6.0662800006282E-05
100
AcDbArc
 50
185.08749202
 51
255.33591901
  0
ARC
  5
44F
100
AcDbEntity
  8
detail
 62
    16
  6
CONTINUOUS
370
     5
100
AcDbCircle
 10
1.83326256
 20
-5.5806594
 30
0.0
 40
3.3701500059469E-05
100
AcDbArc
 50
185.08749208
 51
255.33591894
  0
ARC
  5
450
100
AcDbEntity
  8
detail
 62
    16
  6
CONTINUOUS
370
     5
100
AcDbCircle
 10
1.83311457
 20
-5.580742
 30
0.0
 40
3.3701499981466E-05
100
AcDbArc
 50
304.57949601
 51
0.83151703
  0
ARC
  5
451
100
AcDbEntity
  8
detail
 62
    16
  6
CONTINUOUS
370
     5
100
AcDbCircle
 10
1.83309412
 20
-5.5808707
 30
0.0
 40
3.3701499968134E-05
100
AcDbArc
 50
124.57948497
 51
169.54374001
  0
ARC
  5
452
100
AcDbEntity
  8
detail
 62
    16
  6
CONTINUOUS
370
     5
100
AcDbCircle
 10
1.83311457
 20
-5.580742
 30
0.0
 40
6.0662800038748E-05
100
AcDbArc
 50
304.57949604
 51
0.83151699
  0
ARC
  5
453
100
AcDbEntity
  8
detail
 62
    16
  6
CONTINUOUS
370
     5
100
AcDbCircle
 10
1.83309412
 20
-5.5808707
 30
0.0
 40
6.0662799958485E-05
100
AcDbArc
 50
124.57948498
 51
169.54374003
  0
ARC
  5
454
100
AcDbEntity
  8
detail
 62
    16
  6
CONTINUOUS
370
     5
100
AcDbCircle
 10
1.83349196
 20
-5.58439292
 30
0.0
 40
4.0441799999958E-05
100
AcDbArc
 50
59.42392299
 51
255.43697303
  0
ARC
  5
455
100
AcDbEntity
  8
detail
 62
    16
  6
CONTINUOUS
370
     5
100
AcDbCircle
 10
1.83349439
 20
-5.58439195
 30
0.0
 40
1.3480600004719E-05
100
AcDbArc
 50
75.43695803
 51
255.43697303
  0
ARC
  5
456
100
AcDbEntity
  8
detail
 62
    16
  6
CONTINUOUS
370
     5
100
AcDbCircle
 10
1.83360782
 20
-5.58426956
 30
0.0
 40
0.00014523
100
AcDbArc
 50
253.06393401
 51
7.44595901
  0
ARC
  5
457
100
AcDbEntity
  8
detail
 62
    16
  6
CONTINUOUS
370
     5
100
AcDbCircle
 10
1.83360782
 20
-5.58426956
 30
0.0
 40
0.0001738
100
AcDbArc
 50
250.79518301
 51
7.445959
  0
ARC
  5
458
100
AcDbEntity
  8
detail
 62
    16
  6
CONTINUOUS
370
     5
100
AcDbCircle
 10
1.83360782
 20
-5.58426956
 30
0.0
 40
0.00020236
100
AcDbArc
 50
249.15783902
 51
7.445959
  0
ARC
  5
459
100
AcDbEntity
  8
detail
 62
    16
  6
CONTINUOUS
370
     5
100
AcDbCircle
 10
1.83382206
 20
-5.57250403
 30
0.0
 40
8.3938999993267E-05
100
AcDbArc
 50
208.96883701
 51
313.96883703
  0
ARC
  5
45A
100
AcDbEntity
  8
detail
 62
    16
  6
CONTINUOUS
370
     5
100
AcDbCircle
 10
1.83378428
 20
-5.57243578
 30
0.0
 40
8.3939000001206E-05
100
AcDbArc
 50
133.968829
 51
208.96885202
  0
ARC
  5
45B
100
AcDbEntity
  8
detail
 62
    16
  6
CONTINUOUS
370
     5
100
AcDbCircle
 10
1.83377146
 20
-5.57235485
 30
0.0
 40
1.6787800009109E-05
100
AcDbArc
 50
333.96879802
 51
133.96885097
  0
ARC
  5
45C
100
AcDbEntity
  8
detail
 62
    16
  6
CONTINUOUS
370
     5
100
AcDbCircle
 10
1.83378294
 20
-5.57243335
 30
0.0
 40
2.7979699986482E-05
100
AcDbArc
 50
153.96882898
 51
208.96883104
  0
ARC
  5
45D
100
AcDbEntity
  8
detail
 62
    16
  6
CONTINUOUS
370
     5
100
AcDbCircle
 10
1.83382327
 20
-5.57244844
 30
0.0
 40
5.5959299995406E-05
100
AcDbArc
 50
208.96884602
 51
313.96884102
  0
ARC
  5
45E
100
AcDbEntity
  8
detail
 62
    16
  6
CONTINUOUS
370
     5
100
AcDbCircle
 10
1.83382206
 20
-5.57250403
 30
0.0
 40
8.3938999993267E-05
100
AcDbArc
 50
208.96883701
 51
313.96883703
  0
ARC
  5
45F
100
AcDbEntity
  8
detail
 62
    16
  6
CONTINUOUS
370
     5
100
AcDbCircle
 10
1.83378428
 20
-5.57243578
 30
0.0
 40
8.3939000001206E-05
100
AcDbArc
 50
133.968829
 51
208.96885202
  0
ARC
  5
460
100
AcDbEntity
  8
detail
 62
    16
  6
CONTINUOUS
370
     5
100
AcDbCircle
 10
1.83377146
 20
-5.57235485
 30
0.0
 40
1.6787800009109E-05
100
AcDbArc
 50
333.96879802
 51
133.96885097
  0
ARC
  5
461
100
AcDbEntity
  8
detail
 62
    16
  6
CONTINUOUS
370
     5
100
AcDbCircle
 10
1.83378294
 20
-5.57243335
 30
0.0
 40
2.7979699986482E-05
100
AcDbArc
 50
153.96882898
 51
208.96883104
  0
ARC
  5
462
100
AcDbEntity
  8
detail
 62
    16
  6
CONTINUOUS
370
     5
100
AcDbCircle
 10
1.83382327
 20
-5.57244844
 30
0.0
 40
5.5959299995406E-05
100
AcDbArc
 50
208.96884602
 51
313.96884102
  0
ARC
  5
463
100
AcDbEntity
  8
detail
 62
    16
  6
CONTINUOUS
370
     5
100
AcDbCircle
 10
1.83382206
 20
-5.57250403
 30
0.0
 40
8.3938999993267E-05
100
AcDbArc
 50
208.96883701
 51
313.96883703
  0
ARC
  5
464
100
AcDbEntity
  8
detail
 62
    16
  6
CONTINUOUS
370
     5
100
AcDbCircle
 10
1.83378428
 20
-5.57243578
 30
0.0
 40
8.3939000001206E-05
100
AcDbArc
 50
133.968829
 51
208.96885202
  0
ARC
  5
465
100
AcDbEntity
  8
detail
 62
    16
  6
CONTINUOUS
370
     5
100
AcDbCircle
 10
1.83377146
 20
-5.57235485
 30
0.0
 40
1.6787800009109E-05
100
AcDbArc
 50
333.96879802
 51
133.96885097
  0
ARC
  5
466
100
AcDbEntity
  8
detail
 62
    16
  6
CONTINUOUS
370
     5
100
AcDbCircle
 10
1.83378294
 20
-5.57243335
 30
0.0
 40
2.7979699986482E-05
100
AcDbArc
 50
153.96882898
 51
208.96883104
  0
ARC
  5
467
100
AcDbEntity
  8
detail
 62
    16
  6
CONTINUOUS
370
     5
100
AcDbCircle
 10
1.83382327
 20
-5.57244844
 30
0.0
 40
5.5959299995406E-05
100
AcDbArc
 50
208.96884602
 51
313.96884102
  0
ARC
  5
468
100
AcDbEntity
  8
detail
 62
    16
  6
CONTINUOUS
370
     5
100
AcDbCircle
 10
1.83382206
 20
-5.57250403
 30
0.0
 40
8.3938999993267E-05
100
AcDbArc
 50
208.96883701
 51
313.96883703
  0
ARC
  5
469
100
AcDbEntity
  8
detail
 62
    16
  6
CONTINUOUS
370
     5
100
AcDbCircle
 10
1.83378428
 20
-5.57243578
 30
0.0
 40
8.3939000001206E-05
100
AcDbArc
 50
133.968829
 51
208.96885202
  0
ARC
  5
46A
100
AcDbEntity
  8
detail
 62
    16
  6
CONTINUOUS
370
     5
100
AcDbCircle
 10
1.83377146
 20
-5.57235485
 30
0.0
 40
1.6787800009109E-05
100
AcDbArc
 50
333.96879802
 51
133.96885097
  0
ARC
  5
46B
100
AcDbEntity
  8
detail
 62
    16
  6
CONTINUOUS
370
     5
100
AcDbCircle
 10
1.83378294
 20
-5.57243335
 30
0.0
 40
2.7979699986482E-05
100
AcDbArc
 50
153.96882898
 51
208.96883104
  0
ARC
  5
46C
100
AcDbEntity
  8
detail
 62
    16
  6
CONTINUOUS
370
     5
100
AcDbCircle
 10
1.83382327
 20
-5.57244844
 30
0.0
 40
5.5959299995406E-05
100
AcDbArc
 50
208.96884602
 51
313.96884102
  0
ARC
  5
46D
100
AcDbEntity
  8
detail
 62
    16
  6
CONTINUOUS
370
     5
100
AcDbCircle
 10
1.83382206
 20
-5.57250403
 30
0.0
 40
8.3938999993267E-05
100
AcDbArc
 50
208.96883701
 51
313.96883703
  0
ARC
  5
46E
100
AcDbEntity
  8
detail
 62
    16
  6
CONTINUOUS
370
     5
100
AcDbCircle
 10
1.83378428
 20
-5.57243578
 30
0.0
 40
8.3939000001206E-05
100
AcDbArc
 50
133.968829
 51
208.96885202
  0
ARC
  5
46F
100
AcDbEntity
  8
detail
 62
    16
  6
CONTINUOUS
370
     5
100
AcDbCircle
 10
1.83377146
 20
-5.57235485
 30
0.0
 40
1.6787800009109E-05
100
AcDbArc
 50
333.96879802
 51
133.96885097
  0
ARC
  5
470
100
AcDbEntity
  8
detail
 62
    16
  6
CONTINUOUS
370
     5
100
AcDbCircle
 10
1.83378294
 20
-5.57243335
 30
0.0
 40
2.7979699986482E-05
100
AcDbArc
 50
153.96882898
 51
208.96883104
  0
ARC
  5
471
100
AcDbEntity
  8
detail
 62
    16
  6
CONTINUOUS
370
     5
100
AcDbCircle
 10
1.83382327
 20
-5.57244844
 30
0.0
 40
5.5959299995406E-05
100
AcDbArc
 50
208.96884602
 51
313.96884102
  0
ARC
  5
472
100
AcDbEntity
  8
detail
 62
    16
  6
CONTINUOUS
370
     5
100
AcDbCircle
 10
1.83382206
 20
-5.57250403
 30
0.0
 40
8.3938999993267E-05
100
AcDbArc
 50
208.96883701
 51
313.96883703
  0
ARC
  5
473
100
AcDbEntity
  8
detail
 62
    16
  6
CONTINUOUS
370
     5
100
AcDbCircle
 10
1.83378428
 20
-5.57243578
 30
0.0
 40
8.3939000001206E-05
100
AcDbArc
 50
133.968829
 51
208.96885202
  0
ARC
  5
474
100
AcDbEntity
  8
detail
 62
    16
  6
CONTINUOUS
370
     5
100
AcDbCircle
 10
1.83377146
 20
-5.57235485
 30
0.0
 40
1.6787800009109E-05
100
AcDbArc
 50
333.96879802
 51
133.96885097
  0
ARC
  5
475
100
AcDbEntity
  8
detail
 62
    16
  6
CONTINUOUS
370
     5
100
AcDbCircle
 10
1.83378294
 20
-5.57243335
 30
0.0
 40
2.7979699986482E-05
100
AcDbArc
 50
153.96882898
 51
208.96883104
  0
ARC
  5
476
100
AcDbEntity
  8
detail
 62
    16
  6
CONTINUOUS
370
     5
100
AcDbCircle
 10
1.83382327
 20
-5.57244844
 30
0.0
 40
5.5959299995406E-05
100
AcDbArc
 50
208.96884602
 51
313.96884102
  0
ARC
  5
477
100
AcDbEntity
  8
detail
 62
    16
  6
CONTINUOUS
370
     5
100
AcDbCircle
 10
1.83382206
 20
-5.57250403
 30
0.0
 40
8.3938999993267E-05
100
AcDbArc
 50
208.96883701
 51
313.96883703
  0
ARC
  5
478
100
AcDbEntity
  8
detail
 62
    16
  6
CONTINUOUS
370
     5
100
AcDbCircle
 10
1.83378428
 20
-5.57243578
 30
0.0
 40
8.3939000001206E-05
100
AcDbArc
 50
133.968829
 51
208.96885202
  0
ARC
  5
479
100
AcDbEntity
  8
detail
 62
    16
  6
CONTINUOUS
370
     5
100
AcDbCircle
 10
1.83377146
 20
-5.57235485
 30
0.0
 40
1.6787800009109E-05
100
AcDbArc
 50
333.96879802
 51
133.96885097
  0
ARC
  5
47A
100
AcDbEntity
  8
detail
 62
    16
  6
CONTINUOUS
370
     5
100
AcDbCircle
 10
1.83378294
 20
-5.57243335
 30
0.0
 40
2.7979699986482E-05
100
AcDbArc
 50
153.96882898
 51
208.96883104
  0
ARC
  5
47B
100
AcDbEntity
  8
detail
 62
    16
  6
CONTINUOUS
370
     5
100
AcDbCircle
 10
1.83382327
 20
-5.57244844
 30
0.0
 40
5.5959299995406E-05
100
AcDbArc
 50
208.96884602
 51
313.96884102
  0
ARC
  5
47C
100
AcDbEntity
  8
detail
 62
    16
  6
CONTINUOUS
370
     5
100
AcDbCircle
 10
1.83382206
 20
-5.57250403
 30
0.0
 40
8.3938999993267E-05
100
AcDbArc
 50
208.96883701
 51
313.96883703
  0
ARC
  5
47D
100
AcDbEntity
  8
detail
 62
    16
  6
CONTINUOUS
370
     5
100
AcDbCircle
 10
1.83378428
 20
-5.57243578
 30
0.0
 40
8.3939000001206E-05
100
AcDbArc
 50
133.968829
 51
208.96885202
  0
ARC
  5
47E
100
AcDbEntity
  8
detail
 62
    16
  6
CONTINUOUS
370
     5
100
AcDbCircle
 10
1.83377146
 20
-5.57235485
 30
0.0
 40
1.6787800009109E-05
100
AcDbArc
 50
333.96879802
 51
133.96885097
  0
ARC
  5
47F
100
AcDbEntity
  8
detail
 62
    16
  6
CONTINUOUS
370
     5
100
AcDbCircle
 10
1.83378294
 20
-5.57243335
 30
0.0
 40
2.7979699986482E-05
100
AcDbArc
 50
153.96882898
 51
208.96883104
  0
ARC
  5
480
100
AcDbEntity
  8
detail
 62
    16
  6
CONTINUOUS
370
     5
100
AcDbCircle
 10
1.83382327
 20
-5.57244844
 30
0.0
 40
5.5959299995406E-05
100
AcDbArc
 50
208.96884602
 51
313.96884102
  0
ARC
  5
481
100
AcDbEntity
  8
detail
 62
    16
  6
CONTINUOUS
370
     5
100
AcDbCircle
 10
1.83382206
 20
-5.57250403
 30
0.0
 40
8.3938999993267E-05
100
AcDbArc
 50
208.96883701
 51
313.96883703
  0
ARC
  5
482
100
AcDbEntity
  8
detail
 62
    16
  6
CONTINUOUS
370
     5
100
AcDbCircle
 10
1.83378428
 20
-5.57243578
 30
0.0
 40
8.3939000001206E-05
100
AcDbArc
 50
133.968829
 51
208.96885202
  0
ARC
  5
483
100
AcDbEntity
  8
detail
 62
    16
  6
CONTINUOUS
370
     5
100
AcDbCircle
 10
1.83377146
 20
-5.57235485
 30
0.0
 40
1.6787800009109E-05
100
AcDbArc
 50
333.96879802
 51
133.96885097
  0
ARC
  5
484
100
AcDbEntity
  8
detail
 62
    16
  6
CONTINUOUS
370
     5
100
AcDbCircle
 10
1.83378294
 20
-5.57243335
 30
0.0
 40
2.7979699986482E-05
100
AcDbArc
 50
153.96882898
 51
208.96883104
  0
ARC
  5
485
100
AcDbEntity
  8
detail
 62
    16
  6
CONTINUOUS
370
     5
100
AcDbCircle
 10
1.83382327
 20
-5.57244844
 30
0.0
 40
5.5959299995406E-05
100
AcDbArc
 50
208.96884602
 51
313.96884102
  0
ARC
  5
486
100
AcDbEntity
  8
detail
 62
    16
  6
CONTINUOUS
370
     5
100
AcDbCircle
 10
1.83382206
 20
-5.57250403
 30
0.0
 40
8.3938999993267E-05
100
AcDbArc
 50
208.96883701
 51
313.96883703
  0
ARC
  5
487
100
AcDbEntity
  8
detail
 62
    16
  6
CONTINUOUS
370
     5
100
AcDbCircle
 10
1.83378428
 20
-5.57243578
 30
0.0
 40
8.3939000001206E-05
100
AcDbArc
 50
133.968829
 51
208.96885202
  0
ARC
  5
488
100
AcDbEntity
  8
detail
 62
    16
  6
CONTINUOUS
370
     5
100
AcDbCircle
 10
1.83377146
 20
-5.57235485
 30
0.0
 40
1.6787800009109E-05
100
AcDbArc
 50
333.96879802
 51
133.96885097
  0
ARC
  5
489
100
AcDbEntity
  8
detail
 62
    16
  6
CONTINUOUS
370
     5
100
AcDbCircle
 10
1.83378294
 20
-5.57243335
 30
0.0
 40
2.7979699986482E-05
100
AcDbArc
 50
153.96882898
 51
208.96883104
  0
ARC
  5
48A
100
AcDbEntity
  8
detail
 62
    16
  6
CONTINUOUS
370
     5
100
AcDbCircle
 10
1.83382327
 20
-5.57244844
 30
0.0
 40
5.5959299995406E-05
100
AcDbArc
 50
208.96884602
 51
313.96884102
  0
ARC
  5
48B
100
AcDbEntity
  8
detail
 62
    16
  6
CONTINUOUS
370
     5
100
AcDbCircle
 10
1.83382206
 20
-5.57250403
 30
0.0
 40
8.3938999993267E-05
100
AcDbArc
 50
208.96883701
 51
313.96883703
  0
ARC
  5
48C
100
AcDbEntity
  8
detail
 62
    16
  6
CONTINUOUS
370
     5
100
AcDbCircle
 10
1.83378428
 20
-5.57243578
 30
0.0
 40
8.3939000001206E-05
100
AcDbArc
 50
133.968829
 51
208.96885202
  0
ARC
  5
48D
100
AcDbEntity
  8
detail
 62
    16
  6
CONTINUOUS
370
     5
100
AcDbCircle
 10
1.83377146
 20
-5.57235485
 30
0.0
 40
1.6787800009109E-05
100
AcDbArc
 50
333.96879802
 51
133.96885097
  0
ARC
  5
48E
100
AcDbEntity
  8
detail
 62
    16
  6
CONTINUOUS
370
     5
100
AcDbCircle
 10
1.83378294
 20
-5.57243335
 30
0.0
 40
2.7979699986482E-05
100
AcDbArc
 50
153.96882898
 51
208.96883104
  0
ARC
  5
48F
100
AcDbEntity
  8
detail
 62
    16
  6
CONTINUOUS
370
     5
100
AcDbCircle
 10
1.83382327
 20
-5.57244844
 30
0.0
 40
5.5959299995406E-05
100
AcDbArc
 50
208.96884602
 51
313.96884102
  0
ARC
  5
490
100
AcDbEntity
  8
detail
 62
    16
  6
CONTINUOUS
370
     5
100
AcDbCircle
 10
1.83382206
 20
-5.57250403
 30
0.0
 40
8.3938999993267E-05
100
AcDbArc
 50
208.96883701
 51
313.96883703
  0
ARC
  5
491
100
AcDbEntity
  8
detail
 62
    16
  6
CONTINUOUS
370
     5
100
AcDbCircle
 10
1.83378428
 20
-5.57243578
 30
0.0
 40
8.3939000001206E-05
100
AcDbArc
 50
133.968829
 51
208.96885202
  0
ARC
  5
492
100
AcDbEntity
  8
detail
 62
    16
  6
CONTINUOUS
370
     5
100
AcDbCircle
 10
1.83377146
 20
-5.57235485
 30
0.0
 40
1.6787800009109E-05
100
AcDbArc
 50
333.96879802
 51
133.96885097
  0
ARC
  5
493
100
AcDbEntity
  8
detail
 62
    16
  6
CONTINUOUS
370
     5
100
AcDbCircle
 10
1.83378294
 20
-5.57243335
 30
0.0
 40
2.7979699986482E-05
100
AcDbArc
 50
153.96882898
 51
208.96883104
  0
ARC
  5
494
100
AcDbEntity
  8
detail
 62
    16
  6
CONTINUOUS
370
     5
100
AcDbCircle
 10
1.83382327
 20
-5.57244844
 30
0.0
 40
5.5959299995406E-05
100
AcDbArc
 50
208.96884602
 51
313.96884102
  0
ARC
  5
495
100
AcDbEntity
  8
detail
 62
    16
  6
CONTINUOUS
370
     5
100
AcDbCircle
 10
1.83382206
 20
-5.57250403
 30
0.0
 40
8.3938999993267E-05
100
AcDbArc
 50
208.96883701
 51
313.96883703
  0
ARC
  5
496
100
AcDbEntity
  8
detail
 62
    16
  6
CONTINUOUS
370
     5
100
AcDbCircle
 10
1.83378428
 20
-5.57243578
 30
0.0
 40
8.3939000001206E-05
100
AcDbArc
 50
133.968829
 51
208.96885202
  0
ARC
  5
497
100
AcDbEntity
  8
detail
 62
    16
  6
CONTINUOUS
370
     5
100
AcDbCircle
 10
1.83377146
 20
-5.57235485
 30
0.0
 40
1.6787800009109E-05
100
AcDbArc
 50
333.96879802
 51
133.96885097
  0
ARC
  5
498
100
AcDbEntity
  8
detail
 62
    16
  6
CONTINUOUS
370
     5
100
AcDbCircle
 10
1.83378294
 20
-5.57243335
 30
0.0
 40
2.7979699986482E-05
100
AcDbArc
 50
153.96882898
 51
208.96883104
  0
ARC
  5
499
100
AcDbEntity
  8
detail
 62
    16
  6
CONTINUOUS
370
     5
100
AcDbCircle
 10
1.83382327
 20
-5.57244844
 30
0.0
 40
5.5959299995406E-05
100
AcDbArc
 50
208.96884602
 51
313.96884102
  0
ARC
  5
49A
100
AcDbEntity
  8
detail
 62
    16
  6
CONTINUOUS
370
     5
100
AcDbCircle
 10
1.83382206
 20
-5.57250403
 30
0.0
 40
8.3938999993267E-05
100
AcDbArc
 50
208.96883701
 51
313.96883703
  0
ARC
  5
49B
100
AcDbEntity
  8
detail
 62
    16
  6
CONTINUOUS
370
     5
100
AcDbCircle
 10
1.83378428
 20
-5.57243578
 30
0.0
 40
8.3939000001206E-05
100
AcDbArc
 50
133.968829
 51
208.96885202
  0
ARC
  5
49C
100
AcDbEntity
  8
detail
 62
    16
  6
CONTINUOUS
370
     5
100
AcDbCircle
 10
1.83377146
 20
-5.57235485
 30
0.0
 40
1.6787800009109E-05
100
AcDbArc
 50
333.96879802
 51
133.96885097
  0
ARC
  5
49D
100
AcDbEntity
  8
detail
 62
    16
  6
CONTINUOUS
370
     5
100
AcDbCircle
 10
1.83378294
 20
-5.57243335
 30
0.0
 40
2.7979699986482E-05
100
AcDbArc
 50
153.96882898
 51
208.96883104
  0
ARC
  5
49E
100
AcDbEntity
  8
detail
 62
    16
  6
CONTINUOUS
370
     5
100
AcDbCircle
 10
1.83382327
 20
-5.57244844
 30
0.0
 40
5.5959299995406E-05
100
AcDbArc
 50
208.96884602
 51
313.96884102
  0
ARC
  5
49F
100
AcDbEntity
  8
detail
 62
    16
  6
CONTINUOUS
370
     5
100
AcDbCircle
 10
1.83382206
 20
-5.57250403
 30
0.0
 40
8.3938999993267E-05
100
AcDbArc
 50
208.96883701
 51
313.96883703
  0
ARC
  5
4A0
100
AcDbEntity
  8
detail
 62
    16
  6
CONTINUOUS
370
     5
100
AcDbCircle
 10
1.83378428
 20
-5.57243578
 30
0.0
 40
8.3939000001206E-05
100
AcDbArc
 50
133.968829
 51
208.96885202
  0
ARC
  5
4A1
100
AcDbEntity
  8
detail
 62
    16
  6
CONTINUOUS
370
     5
100
AcDbCircle
 10
1.83377146
 20
-5.57235485
 30
0.0
 40
1.6787800009109E-05
100
AcDbArc
 50
333.96879802
 51
133.96885097
  0
ARC
  5
4A2
100
AcDbEntity
  8
detail
 62
    16
  6
CONTINUOUS
370
     5
100
AcDbCircle
 10
1.83378294
 20
-5.57243335
 30
0.0
 40
2.7979699986482E-05
100
AcDbArc
 50
153.96882898
 51
208.96883104
  0
ARC
  5
4A3
100
AcDbEntity
  8
detail
 62
    16
  6
CONTINUOUS
370
     5
100
AcDbCircle
 10
1.83382327
 20
-5.57244844
 30
0.0
 40
5.5959299995406E-05
100
AcDbArc
 50
208.96884602
 51
313.96884102
  0
ARC
  5
4A4
100
AcDbEntity
  8
detail
 62
    16
  6
CONTINUOUS
370
     5
100
AcDbCircle
 10
1.83382206
 20
-5.57250403
 30
0.0
 40
8.3938999993267E-05
100
AcDbArc
 50
208.96883701
 51
313.96883703
  0
ARC
  5
4A5
100
AcDbEntity
  8
detail
 62
    16
  6
CONTINUOUS
370
     5
100
AcDbCircle
 10
1.83378428
 20
-5.57243578
 30
0.0
 40
8.3939000001206E-05
100
AcDbArc
 50
133.968829
 51
208.96885202
  0
ARC
  5
4A6
100
AcDbEntity
  8
detail
 62
    16
  6
CONTINUOUS
370
     5
100
AcDbCircle
 10
1.83377146
 20
-5.57235485
 30
0.0
 40
1.6787800009109E-05
100
AcDbArc
 50
333.96879802
 51
133.96885097
  0
ARC
  5
4A7
100
AcDbEntity
  8
detail
 62
    16
  6
CONTINUOUS
370
     5
100
AcDbCircle
 10
1.83378294
 20
-5.57243335
 30
0.0
 40
2.7979699986482E-05
100
AcDbArc
 50
153.96882898
 51
208.96883104
  0
ARC
  5
4A8
100
AcDbEntity
  8
detail
 62
    16
  6
CONTINUOUS
370
     5
100
AcDbCircle
 10
1.83382327
 20
-5.57244844
 30
0.0
 40
5.5959299995406E-05
100
AcDbArc
 50
208.96884602
 51
313.96884102
  0
ARC
  5
4A9
100
AcDbEntity
  8
detail
 62
    16
  6
CONTINUOUS
370
     5
100
AcDbCircle
 10
1.83397426
 20
-5.57215765
 30
0.0
 40
0.00021824
100
AcDbArc
 50
313.96883998
 51
322.52223806
  0
ARC
  5
4AA
100
AcDbEntity
  8
detail
 62
    16
  6
CONTINUOUS
370
     5
100
AcDbCircle
 10
1.83449506
 20
-5.57185262
 30
0.0
 40
9.3310999942386E-06
100
AcDbArc
 50
310.91439298
 51
70.78877606
  0
ARC
  5
4AB
100
AcDbEntity
  8
detail
 62
    16
  6
CONTINUOUS
370
     5
100
AcDbCircle
 10
1.83393194
 20
-5.57217535
 30
0.0
 40
0.00018359
100
AcDbArc
 50
43.96882999
 51
133.96882901
  0
ARC
  5
4AC
100
AcDbEntity
  8
detail
 62
    16
  6
CONTINUOUS
370
     5
100
AcDbCircle
 10
1.83428511
 20
-5.57224101
 30
0.0
 40
0.00053148
100
AcDbArc
 50
55.689104
 51
118.564341
  0
ARC
  5
4AD
100
AcDbEntity
  8
detail
 62
    16
  6
CONTINUOUS
370
     5
100
AcDbCircle
 10
1.83429104
 20
-5.57216688
 30
0.0
 40
0.00038452
100
AcDbArc
 50
57.27584
 51
122.73106
  0
ARC
  5
4AE
100
AcDbEntity
  8
detail
 62
    16
  6
CONTINUOUS
370
     5
100
AcDbCircle
 10
1.83352894
 20
-5.57228038
 30
0.0
 40
2.7979699478773E-05
100
AcDbArc
 50
313.96882185
 51
329.12414715
  0
ARC
  5
4AF
100
AcDbEntity
  8
detail
 62
    16
  6
CONTINUOUS
370
     5
100
AcDbCircle
 10
1.83349854
 20
-5.5723097
 30
0.0
 40
2.7979699997434E-05
100
AcDbArc
 50
149.543689
 51
313.96884301
  0
ARC
  5
4B0
100
AcDbEntity
  8
detail
 62
    16
  6
CONTINUOUS
370
     5
100
AcDbCircle
 10
1.83352894
 20
-5.57228038
 30
0.0
 40
2.7979699478773E-05
100
AcDbArc
 50
313.96882185
 51
329.12414715
  0
ARC
  5
4B1
100
AcDbEntity
  8
detail
 62
    16
  6
CONTINUOUS
370
     5
100
AcDbCircle
 10
1.83349854
 20
-5.5723097
 30
0.0
 40
2.7979699997434E-05
100
AcDbArc
 50
149.543689
 51
313.96884301
  0
ARC
  5
4B2
100
AcDbEntity
  8
detail
 62
    16
  6
CONTINUOUS
370
     5
100
AcDbCircle
 10
1.83352894
 20
-5.57228038
 30
0.0
 40
2.7979699478773E-05
100
AcDbArc
 50
313.96882185
 51
329.12414715
  0
ARC
  5
4B3
100
AcDbEntity
  8
detail
 62
    16
  6
CONTINUOUS
370
     5
100
AcDbCircle
 10
1.83349854
 20
-5.5723097
 30
0.0
 40
2.7979699997434E-05
100
AcDbArc
 50
149.543689
 51
313.96884301
  0
ARC
  5
4B4
100
AcDbEntity
  8
detail
 62
    16
  6
CONTINUOUS
370
     5
100
AcDbCircle
 10
1.83352894
 20
-5.57228038
 30
0.0
 40
2.7979699478773E-05
100
AcDbArc
 50
313.96882185
 51
329.12414715
  0
ARC
  5
4B5
100
AcDbEntity
  8
detail
 62
    16
  6
CONTINUOUS
370
     5
100
AcDbCircle
 10
1.83349854
 20
-5.5723097
 30
0.0
 40
2.7979699997434E-05
100
AcDbArc
 50
149.543689
 51
313.96884301
  0
ARC
  5
4B6
100
AcDbEntity
  8
detail
 62
    16
  6
CONTINUOUS
370
     5
100
AcDbCircle
 10
1.83352894
 20
-5.57228038
 30
0.0
 40
2.7979699478773E-05
100
AcDbArc
 50
313.96882185
 51
329.12414715
  0
ARC
  5
4B7
100
AcDbEntity
  8
detail
 62
    16
  6
CONTINUOUS
370
     5
100
AcDbCircle
 10
1.83349854
 20
-5.5723097
 30
0.0
 40
2.7979699997434E-05
100
AcDbArc
 50
149.543689
 51
313.96884301
  0
ARC
  5
4B8
100
AcDbEntity
  8
detail
 62
    16
  6
CONTINUOUS
370
     5
100
AcDbCircle
 10
1.83352894
 20
-5.57228038
 30
0.0
 40
2.7979699478773E-05
100
AcDbArc
 50
313.96882185
 51
329.12414715
  0
ARC
  5
4B9
100
AcDbEntity
  8
detail
 62
    16
  6
CONTINUOUS
370
     5
100
AcDbCircle
 10
1.83349854
 20
-5.5723097
 30
0.0
 40
2.7979699997434E-05
100
AcDbArc
 50
149.543689
 51
313.96884301
  0
ARC
  5
4BA
100
AcDbEntity
  8
detail
 62
    16
  6
CONTINUOUS
370
     5
100
AcDbCircle
 10
1.83352894
 20
-5.57228038
 30
0.0
 40
2.7979699478773E-05
100
AcDbArc
 50
313.96882185
 51
329.12414715
  0
ARC
  5
4BB
100
AcDbEntity
  8
detail
 62
    16
  6
CONTINUOUS
370
     5
100
AcDbCircle
 10
1.83349854
 20
-5.5723097
 30
0.0
 40
2.7979699997434E-05
100
AcDbArc
 50
149.543689
 51
313.96884301
  0
ARC
  5
4BC
100
AcDbEntity
  8
detail
 62
    16
  6
CONTINUOUS
370
     5
100
AcDbCircle
 10
1.83352894
 20
-5.57228038
 30
0.0
 40
2.7979699478773E-05
100
AcDbArc
 50
313.96882185
 51
329.12414715
  0
ARC
  5
4BD
100
AcDbEntity
  8
detail
 62
    16
  6
CONTINUOUS
370
     5
100
AcDbCircle
 10
1.83349854
 20
-5.5723097
 30
0.0
 40
2.7979699997434E-05
100
AcDbArc
 50
149.543689
 51
313.96884301
  0
ARC
  5
4BE
100
AcDbEntity
  8
detail
 62
    16
  6
CONTINUOUS
370
     5
100
AcDbCircle
 10
1.83352894
 20
-5.57228038
 30
0.0
 40
2.7979699478773E-05
100
AcDbArc
 50
313.96882185
 51
329.12414715
  0
ARC
  5
4BF
100
AcDbEntity
  8
detail
 62
    16
  6
CONTINUOUS
370
     5
100
AcDbCircle
 10
1.83349854
 20
-5.5723097
 30
0.0
 40
2.7979699997434E-05
100
AcDbArc
 50
149.543689
 51
313.96884301
  0
ARC
  5
4C0
100
AcDbEntity
  8
detail
 62
    16
  6
CONTINUOUS
370
     5
100
AcDbCircle
 10
1.83352894
 20
-5.57228038
 30
0.0
 40
2.7979699478773E-05
100
AcDbArc
 50
313.96882185
 51
329.12414715
  0
ARC
  5
4C1
100
AcDbEntity
  8
detail
 62
    16
  6
CONTINUOUS
370
     5
100
AcDbCircle
 10
1.83349854
 20
-5.5723097
 30
0.0
 40
2.7979699997434E-05
100
AcDbArc
 50
149.543689
 51
313.96884301
  0
ARC
  5
4C2
100
AcDbEntity
  8
detail
 62
    16
  6
CONTINUOUS
370
     5
100
AcDbCircle
 10
1.83352894
 20
-5.57228038
 30
0.0
 40
2.7979699478773E-05
100
AcDbArc
 50
313.96882185
 51
329.12414715
  0
ARC
  5
4C3
100
AcDbEntity
  8
detail
 62
    16
  6
CONTINUOUS
370
     5
100
AcDbCircle
 10
1.83349854
 20
-5.5723097
 30
0.0
 40
2.7979699997434E-05
100
AcDbArc
 50
149.543689
 51
313.96884301
  0
ARC
  5
4C4
100
AcDbEntity
  8
detail
 62
    16
  6
CONTINUOUS
370
     5
100
AcDbCircle
 10
1.83352894
 20
-5.57228038
 30
0.0
 40
2.7979699478773E-05
100
AcDbArc
 50
313.96882185
 51
329.12414715
  0
ARC
  5
4C5
100
AcDbEntity
  8
detail
 62
    16
  6
CONTINUOUS
370
     5
100
AcDbCircle
 10
1.83349854
 20
-5.5723097
 30
0.0
 40
2.7979699997434E-05
100
AcDbArc
 50
149.543689
 51
313.96884301
  0
ARC
  5
4C6
100
AcDbEntity
  8
detail
 62
    16
  6
CONTINUOUS
370
     5
100
AcDbCircle
 10
1.83352894
 20
-5.57228038
 30
0.0
 40
2.7979699478773E-05
100
AcDbArc
 50
313.96882185
 51
329.12414715
  0
ARC
  5
4C7
100
AcDbEntity
  8
detail
 62
    16
  6
CONTINUOUS
370
     5
100
AcDbCircle
 10
1.83349854
 20
-5.5723097
 30
0.0
 40
2.7979699997434E-05
100
AcDbArc
 50
149.543689
 51
313.96884301
  0
ARC
  5
4C8
100
AcDbEntity
  8
detail
 62
    16
  6
CONTINUOUS
370
     5
100
AcDbCircle
 10
1.83352894
 20
-5.57228038
 30
0.0
 40
2.7979699478773E-05
100
AcDbArc
 50
313.96882185
 51
329.12414715
  0
ARC
  5
4C9
100
AcDbEntity
  8
detail
 62
    16
  6
CONTINUOUS
370
     5
100
AcDbCircle
 10
1.83349854
 20
-5.5723097
 30
0.0
 40
2.7979699997434E-05
100
AcDbArc
 50
149.543689
 51
313.96884301
  0
ARC
  5
4CA
100
AcDbEntity
  8
detail
 62
    16
  6
CONTINUOUS
370
     5
100
AcDbCircle
 10
1.83352894
 20
-5.57228038
 30
0.0
 40
2.7979699478773E-05
100
AcDbArc
 50
313.96882185
 51
329.12414715
  0
ARC
  5
4CB
100
AcDbEntity
  8
detail
 62
    16
  6
CONTINUOUS
370
     5
100
AcDbCircle
 10
1.83349854
 20
-5.5723097
 30
0.0
 40
2.7979699997434E-05
100
AcDbArc
 50
149.543689
 51
313.96884301
  0
ARC
  5
4CC
100
AcDbEntity
  8
detail
 62
    16
  6
CONTINUOUS
370
     5
100
AcDbCircle
 10
1.83352894
 20
-5.57228038
 30
0.0
 40
2.7979699478773E-05
100
AcDbArc
 50
313.96882185
 51
329.12414715
  0
ARC
  5
4CD
100
AcDbEntity
  8
detail
 62
    16
  6
CONTINUOUS
370
     5
100
AcDbCircle
 10
1.83349854
 20
-5.5723097
 30
0.0
 40
2.7979699997434E-05
100
AcDbArc
 50
149.543689
 51
313.96884301
  0
ARC
  5
4CE
100
AcDbEntity
  8
detail
 62
    16
  6
CONTINUOUS
370
     5
100
AcDbCircle
 10
1.8339299
 20
-5.57216392
 30
0.0
 40
0.00017738
100
AcDbArc
 50
313.96884102
 51
40.85046
  0
ARC
  5
4CF
100
AcDbEntity
  8
detail
 62
    16
  6
CONTINUOUS
370
     5
100
AcDbCircle
 10
1.8339299
 20
-5.57216392
 30
0.0
 40
0.00017738
100
AcDbArc
 50
313.96884102
 51
40.85046
  0
ARC
  5
4D0
100
AcDbEntity
  8
detail
 62
    16
  6
CONTINUOUS
370
     5
100
AcDbCircle
 10
1.83458039
 20
-5.57191177
 30
0.0
 40
9.4816500003244E-05
100
AcDbArc
 50
146.215737
 51
62.27187
  0
ARC
  5
4D1
100
AcDbEntity
  8
detail
 62
    16
  6
CONTINUOUS
370
     5
100
AcDbCircle
 10
1.8339299
 20
-5.57216392
 30
0.0
 40
0.00025153
100
AcDbArc
 50
329.56322102
 51
82.937731
  0
ARC
  5
4D2
100
AcDbEntity
  8
detail
 62
    16
  6
CONTINUOUS
370
     5
100
AcDbCircle
 10
1.83901986
 20
-5.57723765
 30
0.0
 40
0.00017143
100
AcDbArc
 50
105.310213
 51
191.91019001
  0
ARC
  5
4D3
100
AcDbEntity
  8
detail
 62
    16
  6
CONTINUOUS
370
     5
100
AcDbCircle
 10
1.8408264
 20
-5.57672938
 30
0.0
 40
0.00204777
100
AcDbArc
 50
331.12443302
 51
344.60420202
  0
ARC
  5
4D4
100
AcDbEntity
  8
detail
 62
    16
  6
CONTINUOUS
370
     5
100
AcDbCircle
 10
1.8408264
 20
-5.57672938
 30
0.0
 40
0.00204777
100
AcDbArc
 50
195.39581802
 51
208.87558602
  0
ARC
  5
4D5
100
AcDbEntity
  8
detail
 62
    16
  6
CONTINUOUS
370
     5
100
AcDbCircle
 10
1.84263295
 20
-5.5762211
 30
0.0
 40
0.00017143
100
AcDbArc
 50
285.31022302
 51
11.910181
  0
ARC
  5
4D6
100
AcDbEntity
  8
detail
 62
    16
  6
CONTINUOUS
370
     5
100
AcDbCircle
 10
1.8408264
 20
-5.57672938
 30
0.0
 40
0.00204777
100
AcDbArc
 50
331.12443302
 51
344.60420202
  0
ARC
  5
4D7
100
AcDbEntity
  8
detail
 62
    16
  6
CONTINUOUS
370
     5
100
AcDbCircle
 10
1.83901986
 20
-5.5762211
 30
0.0
 40
0.00017143
100
AcDbArc
 50
168.089819
 51
254.68979702
  0
ARC
  5
4D8
100
AcDbEntity
  8
detail
 62
    16
  6
CONTINUOUS
370
     5
100
AcDbCircle
 10
1.8408264
 20
-5.57672938
 30
0.0
 40
0.00204777
100
AcDbArc
 50
195.39581802
 51
208.87558602
  0
ARC
  5
4D9
100
AcDbEntity
  8
detail
 62
    16
  6
CONTINUOUS
370
     5
100
AcDbCircle
 10
1.84263295
 20
-5.5762211
 30
0.0
 40
0.00017143
100
AcDbArc
 50
285.31022302
 51
11.910181
  0
ARC
  5
4DA
100
AcDbEntity
  8
detail
 62
    16
  6
CONTINUOUS
370
     5
100
AcDbCircle
 10
1.8408264
 20
-5.57672938
 30
0.0
 40
0.00204777
100
AcDbArc
 50
331.12443302
 51
344.60420202
  0
ARC
  5
4DB
100
AcDbEntity
  8
detail
 62
    16
  6
CONTINUOUS
370
     5
100
AcDbCircle
 10
1.83901986
 20
-5.5762211
 30
0.0
 40
0.00017143
100
AcDbArc
 50
168.089819
 51
254.68979702
  0
ARC
  5
4DC
100
AcDbEntity
  8
detail
 62
    16
  6
CONTINUOUS
370
     5
100
AcDbCircle
 10
1.8408264
 20
-5.57672938
 30
0.0
 40
0.00204777
100
AcDbArc
 50
195.39581802
 51
208.87558602
  0
ARC
  5
4DD
100
AcDbEntity
  8
detail
 62
    16
  6
CONTINUOUS
370
     5
100
AcDbCircle
 10
1.84263295
 20
-5.5762211
 30
0.0
 40
0.00017143
100
AcDbArc
 50
285.31022302
 51
11.910181
  0
ARC
  5
4DE
100
AcDbEntity
  8
detail
 62
    16
  6
CONTINUOUS
370
     5
100
AcDbCircle
 10
1.84263295
 20
-5.57723765
 30
0.0
 40
0.00017143
100
AcDbArc
 50
348.08983002
 51
74.68978699
  0
ARC
  5
4DF
100
AcDbEntity
  8
detail
 62
    16
  6
CONTINUOUS
370
     5
100
AcDbCircle
 10
1.8408264
 20
-5.57672938
 30
0.0
 40
0.00204777
100
AcDbArc
 50
331.12443302
 51
344.60420202
  0
ARC
  5
4E0
100
AcDbEntity
  8
detail
 62
    16
  6
CONTINUOUS
370
     5
100
AcDbCircle
 10
1.83901986
 20
-5.5762211
 30
0.0
 40
0.00017143
100
AcDbArc
 50
168.089819
 51
254.68979702
  0
ARC
  5
4E1
100
AcDbEntity
  8
detail
 62
    16
  6
CONTINUOUS
370
     5
100
AcDbCircle
 10
1.8408264
 20
-5.57672938
 30
0.0
 40
0.00204777
100
AcDbArc
 50
195.39581802
 51
208.87558602
  0
ARC
  5
4E2
100
AcDbEntity
  8
detail
 62
    16
  6
CONTINUOUS
370
     5
100
AcDbCircle
 10
1.8408264
 20
-5.5794728
 30
0.0
 40
0.00072505
100
AcDbArc
 50
204.51138602
 51
335.48863402
  0
ARC
  5
4E3
100
AcDbEntity
  8
detail
 62
    16
  6
CONTINUOUS
370
     5
100
AcDbCircle
 10
1.83897459
 20
-5.57672938
 30
0.0
 40
0.00034293
100
AcDbArc
 50
270.00001002
 51
90.0
  0
ARC
  5
4E4
100
AcDbEntity
  8
detail
 62
    16
  6
CONTINUOUS
370
     5
100
AcDbCircle
 10
1.84267822
 20
-5.57672938
 30
0.0
 40
0.00034293
100
AcDbArc
 50
90.0
 51
270.00001002
  0
ARC
  5
4E5
100
AcDbEntity
  8
detail
 62
    16
  6
CONTINUOUS
370
     5
100
AcDbCircle
 10
1.84263295
 20
-5.5762211
 30
0.0
 40
0.00017143
100
AcDbArc
 50
285.31022302
 51
11.910181
  0
ARC
  5
4E6
100
AcDbEntity
  8
detail
 62
    16
  6
CONTINUOUS
370
     5
100
AcDbCircle
 10
1.84263295
 20
-5.57723765
 30
0.0
 40
0.00017143
100
AcDbArc
 50
348.08983002
 51
74.68978699
  0
ARC
  5
4E7
100
AcDbEntity
  8
detail
 62
    16
  6
CONTINUOUS
370
     5
100
AcDbCircle
 10
1.83901986
 20
-5.5762211
 30
0.0
 40
0.00017143
100
AcDbArc
 50
168.089819
 51
254.68979702
  0
ARC
  5
4E8
100
AcDbEntity
  8
detail
 62
    16
  6
CONTINUOUS
370
     5
100
AcDbCircle
 10
1.8408264
 20
-5.57672938
 30
0.0
 40
0.00204777
100
AcDbArc
 50
15.395808
 51
164.604192
  0
ARC
  5
4E9
100
AcDbEntity
  8
detail
 62
    16
  6
CONTINUOUS
370
     5
100
AcDbCircle
 10
1.8408264
 20
-5.5794728
 30
0.0
 40
0.00072505
100
AcDbArc
 50
204.51138602
 51
335.48863402
  0
ARC
  5
4EA
100
AcDbEntity
  8
detail
 62
    16
  6
CONTINUOUS
370
     5
100
AcDbCircle
 10
1.8408264
 20
-5.5794728
 30
0.0
 40
0.00072505
100
AcDbArc
 50
204.51138602
 51
335.48863402
  0
ARC
  5
4EB
100
AcDbEntity
  8
detail
 62
    16
  6
CONTINUOUS
370
     5
100
AcDbCircle
 10
1.8408264
 20
-5.5794728
 30
0.0
 40
0.00072505
100
AcDbArc
 50
204.51138602
 51
335.48863402
  0
ARC
  5
4EC
100
AcDbEntity
  8
detail
 62
    16
  6
CONTINUOUS
370
     5
100
AcDbCircle
 10
1.83632443
 20
-5.58127971
 30
0.0
 40
0.0005599
100
AcDbArc
 50
39.169975
 51
140.830025
  0
ARC
  5
4ED
100
AcDbEntity
  8
detail
 62
    16
  6
CONTINUOUS
370
     5
100
AcDbCircle
 10
1.83632443
 20
-5.58378805
 30
0.0
 40
0.00175
100
AcDbArc
 50
9.5287237304885E-11
 51
180.0
  0
ARC
  5
4EE
100
AcDbEntity
  8
detail
 62
    16
  6
CONTINUOUS
370
     5
100
AcDbCircle
 10
1.83661797
 20
-5.58838805
 30
0.0
 40
5.0000000001455E-05
100
AcDbArc
 50
90.0
 51
270.00001002
  0
ARC
  5
4EF
100
AcDbEntity
  8
detail
 62
    16
  6
CONTINUOUS
370
     5
100
AcDbCircle
 10
1.83548684
 20
-5.58397819
 30
0.0
 40
8.2922199993482E-05
100
AcDbArc
 50
270.00001001
 51
2.5136915279938E-09
  0
ARC
  5
4F0
100
AcDbEntity
  8
detail
 62
    16
  6
CONTINUOUS
370
     5
100
AcDbCircle
 10
1.83462443
 20
-5.58838846
 30
0.0
 40
5.0000000000000E-05
100
AcDbArc
 50
180.00001002
 51
360.00001002
  0
ARC
  5
4F1
100
AcDbEntity
  8
detail
 62
    16
  6
CONTINUOUS
370
     5
100
AcDbCircle
 10
1.83477443
 20
-5.58398805
 30
0.0
 40
0.0002
100
AcDbArc
 50
90.0
 51
180.00001002
  0
ARC
  5
4F2
100
AcDbEntity
  8
detail
 62
    16
  6
CONTINUOUS
370
     5
100
AcDbCircle
 10
1.83732692
 20
-5.58820992
 30
0.0
 40
0.00023197
100
AcDbArc
 50
130.316118
 51
213.52956402
  0
ARC
  5
4F3
100
AcDbEntity
  8
detail
 62
    16
  6
CONTINUOUS
370
     5
100
AcDbCircle
 10
1.83802629
 20
-5.58383805
 30
0.0
 40
5.0000000002183E-05
100
AcDbArc
 50
360.00001001
 51
156.831906
  0
ARC
  5
4F4
100
AcDbEntity
  8
detail
 62
    16
  6
CONTINUOUS
370
     5
100
AcDbCircle
 10
1.83739243
 20
-5.58775604
 30
0.0
 40
0.00058201
100
AcDbArc
 50
270.00001002
 51
7.8790780825155E-10
  0
ARC
  5
4F5
100
AcDbEntity
  8
detail
 62
    16
  6
CONTINUOUS
370
     5
100
AcDbCircle
 10
1.83739243
 20
-5.58775604
 30
0.0
 40
0.00068201
100
AcDbArc
 50
270.00001002
 51
6.7238041335981E-10
  0
ARC
  5
4F6
100
AcDbEntity
  8
detail
 62
    16
  6
CONTINUOUS
370
     5
100
AcDbCircle
 10
1.83548684
 20
-5.58387097
 30
0.0
 40
8.2922199920027E-05
100
AcDbArc
 50
27.04337597
 51
90.00000003
  0
ARC
  5
4F7
100
AcDbEntity
  8
detail
 62
    16
  6
CONTINUOUS
370
     5
100
AcDbCircle
 10
1.83787443
 20
-5.58403327
 30
0.0
 40
0.0002
100
AcDbArc
 50
58.03346899
 51
90.00000001
  0
ARC
  5
4F8
100
AcDbEntity
  8
detail
 62
    16
  6
CONTINUOUS
370
     5
100
AcDbCircle
 10
1.83477443
 20
-5.58398805
 30
0.0
 40
9.9999999997372E-05
100
AcDbArc
 50
5.633048
 51
180.00001002
  0
ARC
  5
4F9
100
AcDbEntity
  8
detail
 62
    16
  6
CONTINUOUS
370
     5
100
AcDbCircle
 10
1.83495687
 20
-5.58397819
 30
0.0
 40
8.2922199989480E-05
100
AcDbArc
 50
180.0
 51
270.00001002
  0
ARC
  5
4FA
100
AcDbEntity
  8
detail
 62
    16
  6
CONTINUOUS
370
     5
100
AcDbCircle
 10
1.83787443
 20
-5.58403327
 30
0.0
 40
0.0001
100
AcDbArc
 50
360.00001002
 51
90.0
  0
ARC
  5
4FB
100
AcDbEntity
  8
detail
 62
    16
  6
CONTINUOUS
370
     5
100
AcDbCircle
 10
1.8356195
 20
-5.58396672
 30
0.0
 40
4.9741900047426E-05
100
AcDbArc
 50
137.73739802
 51
179.99999998
  0
ARC
  5
4FC
100
AcDbEntity
  8
detail
 62
    16
  6
CONTINUOUS
370
     5
100
AcDbCircle
 10
1.83632443
 20
-5.58798304
 30
0.0
 40
5.0000000000000E-05
100
AcDbArc
 50
90.0
 51
270.00001002
  0
ARC
  5
4FD
100
AcDbEntity
  8
detail
 62
    16
  6
CONTINUOUS
370
     5
100
AcDbCircle
 10
1.83732692
 20
-5.58820992
 30
0.0
 40
0.00014
100
AcDbArc
 50
118.152177
 51
246.24094702
  0
ARC
  5
4FE
100
AcDbEntity
  8
detail
 62
    16
  6
CONTINUOUS
370
     5
100
AcDbCircle
 10
1.83736721
 20
-5.58797669
 30
0.0
 40
4.4131200001693E-05
100
AcDbArc
 50
321.13811601
 51
81.540532
  0
ARC
  5
4FF
100
AcDbEntity
  8
detail
 62
    16
  6
CONTINUOUS
370
     5
100
AcDbCircle
 10
1.83996496
 20
-5.5812313
 30
0.0
 40
0.000275
100
AcDbArc
 50
270.00001002
 51
90.0
  0
ARC
  5
500
100
AcDbEntity
  8
detail
 62
    16
  6
CONTINUOUS
370
     5
100
AcDbCircle
 10
1.84551496
 20
-5.5812313
 30
0.0
 40
0.000275
100
AcDbArc
 50
90.0
 51
270.00001002
  0
ARC
  5
501
100
AcDbEntity
  8
detail
 62
    16
  6
CONTINUOUS
370
     5
100
AcDbCircle
 10
1.84321496
 20
-5.5812313
 30
0.0
 40
0.000275
100
AcDbArc
 50
270.00001002
 51
90.0
  0
ARC
  5
502
100
AcDbEntity
  8
detail
 62
    16
  6
CONTINUOUS
370
     5
100
AcDbCircle
 10
1.84226496
 20
-5.5812313
 30
0.0
 40
0.000275
100
AcDbArc
 50
90.0
 51
270.00001002
  0
ARC
  5
503
100
AcDbEntity
  8
detail
 62
    16
  6
CONTINUOUS
370
     5
100
AcDbCircle
 10
1.84604369
 20
-5.5870313
 30
0.0
 40
5.0000000000000E-05
100
AcDbArc
 50
90.0
 51
180.0
  0
ARC
  5
504
100
AcDbEntity
  8
detail
 62
    16
  6
CONTINUOUS
370
     5
100
AcDbCircle
 10
1.83943622
 20
-5.5870313
 30
0.0
 40
5.0000000000000E-05
100
AcDbArc
 50
0.0
 51
90.0
  0
ARC
  5
505
100
AcDbEntity
  8
detail
 62
    16
  6
CONTINUOUS
370
     5
100
AcDbCircle
 10
1.8457336
 20
-5.58833529
 30
0.0
 40
0.00035
100
AcDbArc
 50
72.271012
 51
360.00001002
  0
ARC
  5
506
100
AcDbEntity
  8
detail
 62
    16
  6
CONTINUOUS
370
     5
100
AcDbCircle
 10
1.83974631
 20
-5.58833529
 30
0.0
 40
0.00035
100
AcDbArc
 50
180.00001002
 51
107.728988
  0
ARC
  5
507
100
AcDbEntity
  8
detail
 62
    16
  6
CONTINUOUS
370
     5
100
AcDbCircle
 10
1.83996496
 20
-5.5842313
 30
0.0
 40
0.000275
100
AcDbArc
 50
270.00001002
 51
90.0
  0
ARC
  5
508
100
AcDbEntity
  8
detail
 62
    16
  6
CONTINUOUS
370
     5
100
AcDbCircle
 10
1.83996496
 20
-5.5822313
 30
0.0
 40
0.000275
100
AcDbArc
 50
270.00001002
 51
90.0
  0
ARC
  5
509
100
AcDbEntity
  8
detail
 62
    16
  6
CONTINUOUS
370
     5
100
AcDbCircle
 10
1.83996496
 20
-5.5832313
 30
0.0
 40
0.000275
100
AcDbArc
 50
270.00001002
 51
90.0
  0
ARC
  5
50A
100
AcDbEntity
  8
detail
 62
    16
  6
CONTINUOUS
370
     5
100
AcDbCircle
 10
1.84551496
 20
-5.5832313
 30
0.0
 40
0.000275
100
AcDbArc
 50
90.0
 51
270.00001002
  0
ARC
  5
50B
100
AcDbEntity
  8
detail
 62
    16
  6
CONTINUOUS
370
     5
100
AcDbCircle
 10
1.84551496
 20
-5.5822313
 30
0.0
 40
0.000275
100
AcDbArc
 50
90.0
 51
270.00001002
  0
ARC
  5
50C
100
AcDbEntity
  8
detail
 62
    16
  6
CONTINUOUS
370
     5
100
AcDbCircle
 10
1.84551496
 20
-5.5842313
 30
0.0
 40
0.000275
100
AcDbArc
 50
90.0
 51
270.00001002
  0
ARC
  5
50D
100
AcDbEntity
  8
detail
 62
    16
  6
CONTINUOUS
370
     5
100
AcDbCircle
 10
1.84226496
 20
-5.5832313
 30
0.0
 40
0.000275
100
AcDbArc
 50
90.0
 51
270.00001002
  0
ARC
  5
50E
100
AcDbEntity
  8
detail
 62
    16
  6
CONTINUOUS
370
     5
100
AcDbCircle
 10
1.84321496
 20
-5.5832313
 30
0.0
 40
0.000275
100
AcDbArc
 50
270.00001002
 51
90.0
  0
ARC
  5
50F
100
AcDbEntity
  8
detail
 62
    16
  6
CONTINUOUS
370
     5
100
AcDbCircle
 10
1.84226496
 20
-5.5842313
 30
0.0
 40
0.000275
100
AcDbArc
 50
90.0
 51
270.00001002
  0
ARC
  5
510
100
AcDbEntity
  8
detail
 62
    16
  6
CONTINUOUS
370
     5
100
AcDbCircle
 10
1.84321496
 20
-5.5842313
 30
0.0
 40
0.000275
100
AcDbArc
 50
270.00001002
 51
90.0
  0
ARC
  5
511
100
AcDbEntity
  8
detail
 62
    16
  6
CONTINUOUS
370
     5
100
AcDbCircle
 10
1.84321496
 20
-5.5822313
 30
0.0
 40
0.000275
100
AcDbArc
 50
270.00001002
 51
90.0
  0
ARC
  5
512
100
AcDbEntity
  8
detail
 62
    16
  6
CONTINUOUS
370
     5
100
AcDbCircle
 10
1.84226496
 20
-5.5822313
 30
0.0
 40
0.000275
100
AcDbArc
 50
90.0
 51
270.00001002
  0
ARC
  5
513
100
AcDbEntity
  8
detail
 62
    16
  6
CONTINUOUS
370
     5
100
AcDbCircle
 10
1.84033547
 20
-5.58734976
 30
0.0
 40
4.4887199995773E-05
100
AcDbArc
 50
315.00001003
 51
135.00000001
  0
ARC
  5
514
100
AcDbEntity
  8
detail
 62
    16
  6
CONTINUOUS
370
     5
100
AcDbCircle
 10
1.84517144
 20
-5.58734976
 30
0.0
 40
4.4887199996287E-05
100
AcDbArc
 50
44.99999999
 51
225.00001001
  0
ARC
  5
515
100
AcDbEntity
  8
detail
 62
    16
  6
CONTINUOUS
370
     5
100
AcDbCircle
 10
1.84259485
 20
-5.57427088
 30
0.0
 40
8.1474800023313E-05
100
AcDbArc
 50
45.00000001
 51
134.99999999
  0
ARC
  5
516
100
AcDbEntity
  8
detail
 62
    16
  6
CONTINUOUS
370
     5
100
AcDbCircle
 10
1.84324735
 20
-5.57492338
 30
0.0
 40
8.1474800014824E-05
100
AcDbArc
 50
315.00001002
 51
44.99999999
  0
ARC
  5
517
100
AcDbEntity
  8
detail
 62
    16
  6
CONTINUOUS
370
     5
100
AcDbCircle
 10
1.83358014
 20
-5.59224723
 30
0.0
 40
0.00017525
100
AcDbArc
 50
6.91623
 51
177.920678
  0
ARC
  5
518
100
AcDbEntity
  8
detail
 62
    16
  6
CONTINUOUS
370
     5
100
AcDbCircle
 10
1.83358014
 20
-5.59224723
 30
0.0
 40
0.00014829
100
AcDbArc
 50
8.297827
 51
177.920678
  0
ARC
  5
519
100
AcDbEntity
  8
detail
 62
    16
  6
CONTINUOUS
370
     5
100
AcDbCircle
 10
1.83358014
 20
-5.59224723
 30
0.0
 40
0.00012133
100
AcDbArc
 50
357.82107102
 51
182.17665401
  0
ARC
  5
51A
100
AcDbEntity
  8
detail
 62
    16
  6
CONTINUOUS
370
     5
100
AcDbCircle
 10
1.83373238
 20
-5.59230563
 30
0.0
 40
3.3027500001331E-05
100
AcDbArc
 50
177.82105899
 51
8.12421702
  0
ARC
  5
51B
100
AcDbEntity
  8
detail
 62
    16
  6
CONTINUOUS
370
     5
100
AcDbCircle
 10
1.83373238
 20
-5.59230563
 30
0.0
 40
6.0663000026361E-06
100
AcDbArc
 50
179.11150102
 51
8.29782691
  0
ARC
  5
51C
100
AcDbEntity
  8
detail
 62
    16
  6
CONTINUOUS
370
     5
100
AcDbCircle
 10
1.84019907
 20
-5.59045934
 30
0.0
 40
0.00711054
100
AcDbArc
 50
185.86280002
 51
195.70969702
  0
ARC
  5
51D
100
AcDbEntity
  8
detail
 62
    16
  6
CONTINUOUS
370
     5
100
AcDbCircle
 10
1.84019907
 20
-5.59045934
 30
0.0
 40
0.0071375
100
AcDbArc
 50
176.187196
 51
185.06030502
  0
ARC
  5
51E
100
AcDbEntity
  8
detail
 62
    16
  6
CONTINUOUS
370
     5
100
AcDbCircle
 10
1.84019907
 20
-5.59045934
 30
0.0
 40
0.0071375
100
AcDbArc
 50
185.81781302
 51
195.70969702
  0
ARC
  5
51F
100
AcDbEntity
  8
detail
 62
    16
  6
CONTINUOUS
370
     5
100
AcDbCircle
 10
1.83359619
 20
-5.58875161
 30
0.0
 40
6.0662800000068E-05
100
AcDbArc
 50
329.61035302
 51
66.28708501
  0
ARC
  5
520
100
AcDbEntity
  8
detail
 62
    16
  6
CONTINUOUS
370
     5
100
AcDbCircle
 10
1.83359907
 20
-5.58875294
 30
0.0
 40
3.3701499999345E-05
100
AcDbArc
 50
1.20309698
 51
66.78799299
  0
ARC
  5
521
100
AcDbEntity
  8
detail
 62
    16
  6
CONTINUOUS
370
     5
100
AcDbCircle
 10
1.84019907
 20
-5.59045934
 30
0.0
 40
0.0071375
100
AcDbArc
 50
166.632902
 51
175.429689
  0
ARC
  5
522
100
AcDbEntity
  8
detail
 62
    16
  6
CONTINUOUS
370
     5
100
AcDbCircle
 10
1.84019907
 20
-5.59045934
 30
0.0
 40
0.00711054
100
AcDbArc
 50
166.632902
 51
175.384715
  0
ARC
  5
523
100
AcDbEntity
  8
detail
 62
    16
  6
CONTINUOUS
370
     5
100
AcDbCircle
 10
1.84019907
 20
-5.59045934
 30
0.0
 40
0.00711054
100
AcDbArc
 50
176.232189
 51
185.01532502
  0
ARC
  5
524
100
AcDbEntity
  8
detail
 62
    16
  6
CONTINUOUS
370
     5
100
AcDbCircle
 10
1.83653423
 20
-5.59010679
 30
0.0
 40
0.00320208
100
AcDbArc
 50
154.974186
 51
211.95055102
  0
ARC
  5
525
100
AcDbEntity
  8
detail
 62
    16
  6
CONTINUOUS
370
     5
100
AcDbCircle
 10
1.83653423
 20
-5.59010679
 30
0.0
 40
0.00317516
100
AcDbArc
 50
155.345613
 51
211.97619202
  0
ARC
  5
526
100
AcDbEntity
  8
detail
 62
    16
  6
CONTINUOUS
370
     5
100
AcDbCircle
 10
1.83336063
 20
-5.59238279
 30
0.0
 40
3.3701500000809E-05
100
AcDbArc
 50
195.70969701
 51
358.98758503
  0
ARC
  5
527
100
AcDbEntity
  8
detail
 62
    16
  6
CONTINUOUS
370
     5
100
AcDbCircle
 10
1.83359898
 20
-5.5918654
 30
0.0
 40
0.00022243
100
AcDbArc
 50
357.45217302
 51
178.98758
  0
ARC
  5
528
100
AcDbEntity
  8
detail
 62
    16
  6
CONTINUOUS
370
     5
100
AcDbCircle
 10
1.83336063
 20
-5.59238279
 30
0.0
 40
6.7402999995620E-06
100
AcDbArc
 50
195.70969697
 51
358.98758511
  0
ARC
  5
529
100
AcDbEntity
  8
detail
 62
    16
  6
CONTINUOUS
370
     5
100
AcDbCircle
 10
1.83359898
 20
-5.5918654
 30
0.0
 40
0.00019547
100
AcDbArc
 50
357.45217302
 51
178.98758
  0
ARC
  5
52A
100
AcDbEntity
  8
detail
 62
    16
  6
CONTINUOUS
370
     5
100
AcDbCircle
 10
1.83369926
 20
-5.5918665
 30
0.0
 40
0.00013481
100
AcDbArc
 50
355.91910902
 51
28.92946499
  0
ARC
  5
52B
100
AcDbEntity
  8
detail
 62
    16
  6
CONTINUOUS
370
     5
100
AcDbCircle
 10
1.83369926
 20
-5.5918665
 30
0.0
 40
0.00016177
100
AcDbArc
 50
355.91910901
 51
28.92946501
  0
ARC
  5
52C
100
AcDbEntity
  8
detail
 62
    16
  6
CONTINUOUS
370
     5
100
AcDbCircle
 10
1.83356634
 20
-5.58824575
 30
0.0
 40
0.00017525
100
AcDbArc
 50
6.91623
 51
177.920678
  0
ARC
  5
52D
100
AcDbEntity
  8
detail
 62
    16
  6
CONTINUOUS
370
     5
100
AcDbCircle
 10
1.83356634
 20
-5.58824575
 30
0.0
 40
0.00014829
100
AcDbArc
 50
8.297827
 51
177.920678
  0
ARC
  5
52E
100
AcDbEntity
  8
detail
 62
    16
  6
CONTINUOUS
370
     5
100
AcDbCircle
 10
1.83356634
 20
-5.58824575
 30
0.0
 40
0.00012133
100
AcDbArc
 50
357.82107101
 51
182.17665402
  0
ARC
  5
52F
100
AcDbEntity
  8
detail
 62
    16
  6
CONTINUOUS
370
     5
100
AcDbCircle
 10
1.83371858
 20
-5.58830415
 30
0.0
 40
3.3027500000134E-05
100
AcDbArc
 50
177.82105902
 51
8.12421699
  0
ARC
  5
530
100
AcDbEntity
  8
detail
 62
    16
  6
CONTINUOUS
370
     5
100
AcDbCircle
 10
1.83371858
 20
-5.58830415
 30
0.0
 40
6.0663000027742E-06
100
AcDbArc
 50
179.11150116
 51
8.29782692
  0
ARC
  5
531
100
AcDbEntity
  8
detail
 62
    16
  6
CONTINUOUS
370
     5
100
AcDbCircle
 10
1.8334929
 20
-5.58862077
 30
0.0
 40
6.0662799999959E-05
100
AcDbArc
 50
182.17665403
 51
252.42508102
  0
ARC
  5
532
100
AcDbEntity
  8
detail
 62
    16
  6
CONTINUOUS
370
     5
100
AcDbCircle
 10
1.8334929
 20
-5.58862077
 30
0.0
 40
3.3701499990944E-05
100
AcDbArc
 50
182.17665402
 51
252.42508103
  0
ARC
  5
533
100
AcDbEntity
  8
detail
 62
    16
  6
CONTINUOUS
370
     5
100
AcDbCircle
 10
1.83334091
 20
-5.58869575
 30
0.0
 40
3.3701499985702E-05
100
AcDbArc
 50
301.66865801
 51
357.92068904
  0
ARC
  5
534
100
AcDbEntity
  8
detail
 62
    16
  6
CONTINUOUS
370
     5
100
AcDbCircle
 10
1.83331395
 20
-5.58882325
 30
0.0
 40
3.3701499946447E-05
100
AcDbArc
 50
121.66864697
 51
166.63290206
  0
ARC
  5
535
100
AcDbEntity
  8
detail
 62
    16
  6
CONTINUOUS
370
     5
100
AcDbCircle
 10
1.83334091
 20
-5.58869575
 30
0.0
 40
6.0662799985217E-05
100
AcDbArc
 50
301.668658
 51
357.92068902
  0
ARC
  5
536
100
AcDbEntity
  8
detail
 62
    16
  6
CONTINUOUS
370
     5
100
AcDbCircle
 10
1.83331395
 20
-5.58882325
 30
0.0
 40
6.0662799883145E-05
100
AcDbArc
 50
121.66864696
 51
166.63290204
  0
ARC
  5
537
100
AcDbEntity
  8
detail
 62
    16
  6
CONTINUOUS
370
     5
100
AcDbCircle
 10
1.83353241
 20
-5.59236112
 30
0.0
 40
4.0441799999322E-05
100
AcDbArc
 50
56.513085
 51
252.52613502
  0
ARC
  5
538
100
AcDbEntity
  8
detail
 62
    16
  6
CONTINUOUS
370
     5
100
AcDbCircle
 10
1.83353489
 20
-5.59236027
 30
0.0
 40
1.3480599995453E-05
100
AcDbArc
 50
72.52611996
 51
252.52613506
  0
ARC
  5
539
100
AcDbEntity
  8
detail
 62
    16
  6
CONTINUOUS
370
     5
100
AcDbCircle
 10
1.83365438
 20
-5.59224381
 30
0.0
 40
0.00014523
100
AcDbArc
 50
250.15309602
 51
4.535121
  0
ARC
  5
53A
100
AcDbEntity
  8
detail
 62
    16
  6
CONTINUOUS
370
     5
100
AcDbCircle
 10
1.83365438
 20
-5.59224381
 30
0.0
 40
0.0001738
100
AcDbArc
 50
247.88434502
 51
4.535121
  0
ARC
  5
53B
100
AcDbEntity
  8
detail
 62
    16
  6
CONTINUOUS
370
     5
100
AcDbCircle
 10
1.83365438
 20
-5.59224381
 30
0.0
 40
0.00020236
100
AcDbArc
 50
246.24700101
 51
4.535121
  0
CIRCLE
  5
53C
100
AcDbEntity
  8
detail
 62
    16
  6
CONTINUOUS
370
     5
100
AcDbCircle
 10
1.84423996
 20
-5.58124441
 30
0.0
 40
0.0002
  0
CIRCLE
  5
53D
100
AcDbEntity
  8
detail
 62
    16
  6
CONTINUOUS
370
     5
100
AcDbCircle
 10
1.84423996
 20
-5.58124441
 30
0.0
 40
0.00025
  0
CIRCLE
  5
53E
100
AcDbEntity
  8
detail
 62
    16
  6
CONTINUOUS
370
     5
100
AcDbCircle
 10
1.84423996
 20
-5.58124441
 30
0.0
 40
0.0002
  0
CIRCLE
  5
53F
100
AcDbEntity
  8
detail
 62
    16
  6
CONTINUOUS
370
     5
100
AcDbCircle
 10
1.84423996
 20
-5.58124441
 30
0.0
 40
0.00025
  0
CIRCLE
  5
540
100
AcDbEntity
  8
detail
 62
    16
  6
CONTINUOUS
370
     5
100
AcDbCircle
 10
1.84423996
 20
-5.58124441
 30
0.0
 40
0.0002
  0
CIRCLE
  5
541
100
AcDbEntity
  8
detail
 62
    16
  6
CONTINUOUS
370
     5
100
AcDbCircle
 10
1.84423996
 20
-5.58124441
 30
0.0
 40
0.00025
  0
CIRCLE
  5
542
100
AcDbEntity
  8
detail
 62
    16
  6
CONTINUOUS
370
     5
100
AcDbCircle
 10
1.84423996
 20
-5.58124441
 30
0.0
 40
0.0002
  0
CIRCLE
  5
543
100
AcDbEntity
  8
detail
 62
    16
  6
CONTINUOUS
370
     5
100
AcDbCircle
 10
1.84423996
 20
-5.58124441
 30
0.0
 40
0.00025
  0
CIRCLE
  5
544
100
AcDbEntity
  8
detail
 62
    16
  6
CENTER
370
     5
100
AcDbCircle
 10
1.84084848
 20
-5.57672938
 30
0.0
 40
0.00616522
  0
CIRCLE
  5
545
100
AcDbEntity
  8
detail
 62
    16
  6
CONTINUOUS
370
     5
100
AcDbCircle
 10
1.8408264
 20
-5.5794728
 30
0.0
 40
0.00019596
  0
CIRCLE
  5
546
100
AcDbEntity
  8
detail
 62
    16
  6
CONTINUOUS
370
     5
100
AcDbCircle
 10
1.8408264
 20
-5.5794728
 30
0.0
 40
0.00024495
  0
CIRCLE
  5
547
100
AcDbEntity
  8
detail
 62
    16
  6
CONTINUOUS
370
     5
100
AcDbCircle
 10
1.8408264
 20
-5.57672938
 30
0.0
 40
0.00078384
  0
CIRCLE
  5
548
100
AcDbEntity
  8
detail
 62
    16
  6
CONTINUOUS
370
     5
100
AcDbCircle
 10
1.8408264
 20
-5.57672938
 30
0.0
 40
0.00088182
  0
CIRCLE
  5
549
100
AcDbEntity
  8
detail
 62
    16
  6
CONTINUOUS
370
     5
100
AcDbCircle
 10
1.8408264
 20
-5.57672938
 30
0.0
 40
0.00129333
  0
CIRCLE
  5
54A
100
AcDbEntity
  8
detail
 62
    16
  6
CONTINUOUS
370
     5
100
AcDbCircle
 10
1.8408264
 20
-5.5794728
 30
0.0
 40
0.00019596
  0
CIRCLE
  5
54B
100
AcDbEntity
  8
detail
 62
    16
  6
CONTINUOUS
370
     5
100
AcDbCircle
 10
1.8408264
 20
-5.5794728
 30
0.0
 40
0.00024495
  0
CIRCLE
  5
54C
100
AcDbEntity
  8
detail
 62
    16
  6
CONTINUOUS
370
     5
100
AcDbCircle
 10
1.8408264
 20
-5.57672938
 30
0.0
 40
0.00078384
  0
CIRCLE
  5
54D
100
AcDbEntity
  8
detail
 62
    16
  6
CONTINUOUS
370
     5
100
AcDbCircle
 10
1.8408264
 20
-5.57672938
 30
0.0
 40
0.00088182
  0
CIRCLE
  5
54E
100
AcDbEntity
  8
detail
 62
    16
  6
CONTINUOUS
370
     5
100
AcDbCircle
 10
1.8408264
 20
-5.57672938
 30
0.0
 40
0.00129333
  0
CIRCLE
  5
54F
100
AcDbEntity
  8
detail
 62
    16
  6
CONTINUOUS
370
     5
100
AcDbCircle
 10
1.8408264
 20
-5.5794728
 30
0.0
 40
0.00019596
  0
CIRCLE
  5
550
100
AcDbEntity
  8
detail
 62
    16
  6
CONTINUOUS
370
     5
100
AcDbCircle
 10
1.8408264
 20
-5.5794728
 30
0.0
 40
0.00024495
  0
CIRCLE
  5
551
100
AcDbEntity
  8
detail
 62
    16
  6
CONTINUOUS
370
     5
100
AcDbCircle
 10
1.8408264
 20
-5.57672938
 30
0.0
 40
0.00078384
  0
CIRCLE
  5
552
100
AcDbEntity
  8
detail
 62
    16
  6
CONTINUOUS
370
     5
100
AcDbCircle
 10
1.8408264
 20
-5.57672938
 30
0.0
 40
0.00088182
  0
CIRCLE
  5
553
100
AcDbEntity
  8
detail
 62
    16
  6
CONTINUOUS
370
     5
100
AcDbCircle
 10
1.8408264
 20
-5.57672938
 30
0.0
 40
0.00129333
  0
CIRCLE
  5
554
100
AcDbEntity
  8
detail
 62
    16
  6
CONTINUOUS
370
     5
100
AcDbCircle
 10
1.8408264
 20
-5.5794728
 30
0.0
 40
0.00019596
  0
CIRCLE
  5
555
100
AcDbEntity
  8
detail
 62
    16
  6
CONTINUOUS
370
     5
100
AcDbCircle
 10
1.8408264
 20
-5.5794728
 30
0.0
 40
0.00024495
  0
CIRCLE
  5
556
100
AcDbEntity
  8
detail
 62
    16
  6
CONTINUOUS
370
     5
100
AcDbCircle
 10
1.8408264
 20
-5.57672938
 30
0.0
 40
0.00078384
  0
CIRCLE
  5
557
100
AcDbEntity
  8
detail
 62
    16
  6
CONTINUOUS
370
     5
100
AcDbCircle
 10
1.8408264
 20
-5.57672938
 30
0.0
 40
0.00088182
  0
CIRCLE
  5
558
100
AcDbEntity
  8
detail
 62
    16
  6
CONTINUOUS
370
     5
100
AcDbCircle
 10
1.8408264
 20
-5.57672938
 30
0.0
 40
0.00129333
  0
CIRCLE
  5
559
100
AcDbEntity
  8
detail
 62
    16
  6
CONTINUOUS
370
     5
100
AcDbCircle
 10
1.83632443
 20
-5.58123625
 30
0.0
 40
0.0002
  0
CIRCLE
  5
55A
100
AcDbEntity
  8
detail
 62
    16
  6
CONTINUOUS
370
     5
100
AcDbCircle
 10
1.83632443
 20
-5.58123625
 30
0.0
 40
0.00025
  0
CIRCLE
  5
55B
100
AcDbEntity
  8
detail
 62
    16
  6
CONTINUOUS
370
     5
100
AcDbCircle
 10
1.83632443
 20
-5.58123625
 30
0.0
 40
0.0002
  0
CIRCLE
  5
55C
100
AcDbEntity
  8
detail
 62
    16
  6
CONTINUOUS
370
     5
100
AcDbCircle
 10
1.83632443
 20
-5.58588826
 30
0.0
 40
0.00069667
  0
CIRCLE
  5
55D
100
AcDbEntity
  8
detail
 62
    16
  6
CONTINUOUS
370
     5
100
AcDbCircle
 10
1.84123996
 20
-5.5842313
 30
0.0
 40
0.00025
  0
CIRCLE
  5
55E
100
AcDbEntity
  8
detail
 62
    16
  6
CONTINUOUS
370
     5
100
AcDbCircle
 10
1.84123996
 20
-5.58324441
 30
0.0
 40
0.00025
  0
CIRCLE
  5
55F
100
AcDbEntity
  8
detail
 62
    16
  6
CONTINUOUS
370
     5
100
AcDbCircle
 10
1.84123996
 20
-5.58224441
 30
0.0
 40
0.00025
  0
CIRCLE
  5
560
100
AcDbEntity
  8
detail
 62
    16
  6
CONTINUOUS
370
     5
100
AcDbCircle
 10
1.84423996
 20
-5.5842313
 30
0.0
 40
0.00025
  0
CIRCLE
  5
561
100
AcDbEntity
  8
detail
 62
    16
  6
CONTINUOUS
370
     5
100
AcDbCircle
 10
1.84423996
 20
-5.5832313
 30
0.0
 40
0.00025
  0
CIRCLE
  5
562
100
AcDbEntity
  8
detail
 62
    16
  6
CONTINUOUS
370
     5
100
AcDbCircle
 10
1.84423996
 20
-5.5822313
 30
0.0
 40
0.00025
  0
CIRCLE
  5
563
100
AcDbEntity
  8
detail
 62
    16
  6
CONTINUOUS
370
     5
100
AcDbCircle
 10
1.84123996
 20
-5.58124441
 30
0.0
 40
0.0002
  0
CIRCLE
  5
564
100
AcDbEntity
  8
detail
 62
    16
  6
CONTINUOUS
370
     5
100
AcDbCircle
 10
1.84123996
 20
-5.58124441
 30
0.0
 40
0.00025
  0
CIRCLE
  5
565
100
AcDbEntity
  8
detail
 62
    16
  6
CONTINUOUS
370
     5
100
AcDbCircle
 10
1.84123996
 20
-5.58124441
 30
0.0
 40
0.0002
  0
CIRCLE
  5
566
100
AcDbEntity
  8
detail
 62
    16
  6
CONTINUOUS
370
     5
100
AcDbCircle
 10
1.84123996
 20
-5.58124441
 30
0.0
 40
0.00025
  0
CIRCLE
  5
567
100
AcDbEntity
  8
detail
 62
    16
  6
CONTINUOUS
370
     5
100
AcDbCircle
 10
1.84123996
 20
-5.58124441
 30
0.0
 40
0.0002
  0
CIRCLE
  5
568
100
AcDbEntity
  8
detail
 62
    16
  6
CONTINUOUS
370
     5
100
AcDbCircle
 10
1.84123996
 20
-5.58124441
 30
0.0
 40
0.00025
  0
CIRCLE
  5
569
100
AcDbEntity
  8
detail
 62
    16
  6
CONTINUOUS
370
     5
100
AcDbCircle
 10
1.84123996
 20
-5.58124441
 30
0.0
 40
0.0002
  0
CIRCLE
  5
56A
100
AcDbEntity
  8
detail
 62
    16
  6
CONTINUOUS
370
     5
100
AcDbCircle
 10
1.84123996
 20
-5.58124441
 30
0.0
 40
0.00025
  0
HATCH
  5
56B
100
AcDbEntity
  8
detail
 62
    16
100
AcDbHatch
 10
0.0
 20
0.0
 30
0.0
210
0.0
220
0.0
230
1.0
  2
DOPPELLINIE_1_4
 70
     0
 71
     0
 91
        1
 92
        7
 72
     0
 73
     1
 93
        8
 10
1.84030373
 20
-5.58731802
 10
1.83971585
 20
-5.5879059
 10
1.84030373
 20
-5.5879059
 10
1.84030373
 20
-5.58908166
 10
1.84040373
 20
-5.58908166
 10
1.84040373
 20
-5.5878059
 10
1.83994281
 20
-5.5878059
 10
1.83994046
 20
-5.58780825
 97
        0
 75
     0
 76
     2
 52
0.0
 41
1.0
 77
     0
 78
     2
 53
45.0
 43
0.0
 44
0.0
 45
-0.0001149
 46
0.0001149
 79
     2
 49
0.0025
 49
-2.4999999368447E-08
 53
45.0
 43
0.0
 44
3.2499998807907E-05
 45
-0.0001149
 46
0.0001149
 79
     2
 49
0.0025
 49
-2.4999999368447E-08
 47
0.775229
 98
        1
 10
0.0
 20
0.0
  0
HATCH
  5
56C
100
AcDbEntity
  8
detail
 62
    16
100
AcDbHatch
 10
0.0
 20
0.0
 30
0.0
210
0.0
220
0.0
230
1.0
  2
DOPPELLINIE_1_4
 70
     0
 71
     0
 91
        1
 92
        7
 72
     0
 73
     1
 93
        8
 10
1.83787544
 20
-5.57795171
 10
1.83801431
 20
-5.57789418
 10
1.8396616
 20
-5.57954147
 10
1.84199121
 20
-5.57954147
 10
1.84363849
 20
-5.57789418
 10
1.84377737
 20
-5.57795171
 10
1.84204874
 20
-5.57968035
 10
1.83960407
 20
-5.57968035
 97
        0
 75
     0
 76
     2
 52
0.0
 41
1.0
 77
     0
 78
     2
 53
45.0
 43
0.0
 44
0.0
 45
-0.0001149
 46
0.0001149
 79
     2
 49
0.0025
 49
-2.4999999368447E-08
 53
45.0
 43
0.0
 44
3.2499998807907E-05
 45
-0.0001149
 46
0.0001149
 79
     2
 49
0.0025
 49
-2.4999999368447E-08
 47
0.775229
 98
        1
 10
0.0
 20
0.0
  0
HATCH
  5
56D
100
AcDbEntity
  8
detail
 62
    16
100
AcDbHatch
 10
0.0
 20
0.0
 30
0.0
210
0.0
220
0.0
230
1.0
  2
DOPPELLINIE_1_4
 70
     0
 71
     0
 91
        1
 92
        7
 72
     0
 73
     1
 93
       12
 10
1.83787544
 20
-5.57795171
 10
1.83801431
 20
-5.57789418
 10
1.83801431
 20
-5.57556457
 10
1.8396616
 20
-5.57391729
 10
1.84199121
 20
-5.57391729
 10
1.84363849
 20
-5.57556457
 10
1.84363849
 20
-5.57789418
 10
1.84377737
 20
-5.57795171
 10
1.84377737
 20
-5.57550705
 10
1.84204874
 20
-5.57377841
 10
1.83960407
 20
-5.57377841
 10
1.83787544
 20
-5.57550705
 97
        0
 75
     0
 76
     2
 52
0.0
 41
1.0
 77
     0
 78
     2
 53
45.0
 43
0.0
 44
0.0
 45
-0.0001149
 46
0.0001149
 79
     2
 49
0.0025
 49
-2.4999999368447E-08
 53
45.0
 43
0.0
 44
3.2499998807907E-05
 45
-0.0001149
 46
0.0001149
 79
     2
 49
0.0025
 49
-2.4999999368447E-08
 47
0.775229
 98
        1
 10
0.0
 20
0.0
  0
HATCH
  5
56E
100
AcDbEntity
  8
detail
 62
    16
100
AcDbHatch
 10
0.0
 20
0.0
 30
0.0
210
0.0
220
0.0
230
1.0
  2
DOPPELLINIE_1_4
 70
     0
 71
     0
 91
        1
 92
        7
 72
     0
 73
     1
 93
        6
 10
1.83823996
 20
-5.58923166
 10
1.83823996
 20
-5.58918501
 10
1.83829963
 20
-5.58908166
 10
1.84718028
 20
-5.58908166
 10
1.84723996
 20
-5.58918501
 10
1.84723996
 20
-5.58923166
 97
        0
 75
     0
 76
     2
 52
0.0
 41
1.0
 77
     0
 78
     2
 53
45.0
 43
0.0
 44
0.0
 45
-0.0001149
 46
0.0001149
 79
     2
 49
0.0025
 49
-2.4999999368447E-08
 53
45.0
 43
0.0
 44
3.2499998807907E-05
 45
-0.0001149
 46
0.0001149
 79
     2
 49
0.0025
 49
-2.4999999368447E-08
 47
0.775229
 98
        1
 10
0.0
 20
0.0
  0
HATCH
  5
56F
100
AcDbEntity
  8
detail
 62
    16
100
AcDbHatch
 10
0.0
 20
0.0
 30
0.0
210
0.0
220
0.0
230
1.0
  2
DOPPELLINIE_1_4
 70
     0
 71
     0
 91
        1
 92
        7
 72
     0
 73
     1
 93
        8
 10
1.84556644
 20
-5.58780825
 10
1.84556409
 20
-5.5878059
 10
1.84510318
 20
-5.5878059
 10
1.84510318
 20
-5.58908166
 10
1.84520315
 20
-5.58908166
 10
1.84520315
 20
-5.5879059
 10
1.84579102
 20
-5.5879059
 10
1.84520315
 20
-5.58731802
 97
        0
 75
     0
 76
     2
 52
0.0
 41
1.0
 77
     0
 78
     2
 53
45.0
 43
0.0
 44
0.0
 45
-0.0001149
 46
0.0001149
 79
     2
 49
0.0025
 49
-2.4999999368447E-08
 53
45.0
 43
0.0
 44
3.2499998807907E-05
 45
-0.0001149
 46
0.0001149
 79
     2
 49
0.0025
 49
-2.4999999368447E-08
 47
0.775229
 98
        1
 10
0.0
 20
0.0
  0
HATCH
  5
570
100
AcDbEntity
  8
detail
 62
    16
100
AcDbHatch
 10
0.0
 20
0.0
 30
0.0
210
0.0
220
0.0
230
1.0
  2
DOPPELLINIE_1_4
 70
     0
 71
     0
 91
        1
 92
        7
 72
     0
 73
     1
 93
        4
 10
1.84033651
 20
-5.57623948
 10
1.8413163
 20
-5.57623948
 10
1.8413163
 20
-5.57721928
 10
1.84033651
 20
-5.57721928
 97
        0
 75
     0
 76
     2
 52
0.0
 41
1.0
 77
     0
 78
     2
 53
45.0
 43
0.0
 44
0.0
 45
-0.0001149
 46
0.0001149
 79
     2
 49
0.0025
 49
-2.4999999368447E-08
 53
45.0
 43
0.0
 44
3.2499998807907E-05
 45
-0.0001149
 46
0.0001149
 79
     2
 49
0.0025
 49
-2.4999999368447E-08
 47
0.775229
 98
        1
 10
0.0
 20
0.0
  0
LWPOLYLINE
  5
571
100
AcDbEntity
  8
detail
 62
    16
  6
CONTINUOUS
370
     5
100
AcDbPolyline
 90
       17
 70
     0
 43
0.0
 10
1.83405304
 20
-5.57229158
 10
1.83405105
 20
-5.57229533
 10
1.8340452
 20
-5.57230573
 10
1.83403568
 20
-5.57232149
 10
1.83402268
 20
-5.57234132
 10
1.83400637
 20
-5.57236395
 10
1.83398695
 20
-5.57238808
 10
1.8339646
 20
-5.57241243
 10
1.83393951
 20
-5.57243572
 10
1.83392589
 20
-5.57244671
 10
1.83391229
 20
-5.5724568
 10
1.83389927
 20
-5.57246582
 10
1.83388737
 20
-5.57247359
 10
1.83387715
 20
-5.57247994
 10
1.83386917
 20
-5.5724847
 10
1.83386397
 20
-5.57248768
 10
1.83386212
 20
-5.57248871
  0
LWPOLYLINE
  5
572
100
AcDbEntity
  8
detail
 62
    16
  6
CONTINUOUS
370
     5
100
AcDbPolyline
 90
       17
 70
     0
 43
0.0
 10
1.83412578
 20
-5.57231472
 10
1.83412359
 20
-5.57231814
 10
1.83411728
 20
-5.57232772
 10
1.83410723
 20
-5.57234239
 10
1.83409383
 20
-5.5723611
 10
1.83407747
 20
-5.5723828
 10
1.83405854
 20
-5.57240644
 10
1.83403741
 20
-5.57243096
 10
1.83401449
 20
-5.57245531
 10
1.83399122
 20
-5.57247767
 10
1.83396781
 20
-5.57249832
 10
1.83394526
 20
-5.57251688
 10
1.83392456
 20
-5.57253295
 10
1.83390671
 20
-5.57254613
 10
1.83389273
 20
-5.57255604
 10
1.8338836
 20
-5.57256227
 10
1.83388034
 20
-5.57256444
  0
LWPOLYLINE
  5
573
100
AcDbEntity
  8
detail
 62
    16
  6
CONTINUOUS
370
     5
100
AcDbPolyline
 90
       70
 70
     0
 43
0.0
 10
1.83505884
 20
-5.57140733
 10
1.83509316
 20
-5.57139582
 10
1.83519042
 20
-5.57136478
 10
1.83534207
 20
-5.57131942
 10
1.83543562
 20
-5.57129301
 10
1.83553955
 20
-5.57126498
 10
1.8356528
 20
-5.57123599
 10
1.83577431
 20
-5.57120669
 10
1.83590299
 20
-5.57117773
 10
1.83603778
 20
-5.57114976
 10
1.83617762
 20
-5.57112345
 10
1.83632142
 20
-5.57109944
 10
1.83646813
 20
-5.57107838
 10
1.83654224
 20
-5.57106917
 10
1.83661667
 20
-5.57106094
 10
1.83673684
 20
-5.57105003
 10
1.83685708
 20
-5.57104216
 10
1.83697735
 20
-5.5710373
 10
1.83709758
 20
-5.57103543
 10
1.83721775
 20
-5.57103654
 10
1.83733778
 20
-5.57104061
 10
1.83745765
 20
-5.57104762
 10
1.83757729
 20
-5.57105756
 10
1.83769666
 20
-5.57107039
 10
1.83781571
 20
-5.57108612
 10
1.83793439
 20
-5.57110472
 10
1.83805265
 20
-5.57112617
 10
1.83817044
 20
-5.57115045
 10
1.83828771
 20
-5.57117755
 10
1.83840442
 20
-5.57120744
 10
1.83852051
 20
-5.57124012
 10
1.83861832
 20
-5.57127
 10
1.83871509
 20
-5.57130171
 10
1.83881079
 20
-5.57133518
 10
1.83890541
 20
-5.57137034
 10
1.83899893
 20
-5.57140712
 10
1.83909135
 20
-5.57144543
 10
1.83918264
 20
-5.57148522
 10
1.83927278
 20
-5.57152639
 10
1.83936177
 20
-5.57156889
 10
1.83944958
 20
-5.57161263
 10
1.8395362
 20
-5.57165755
 10
1.83962162
 20
-5.57170356
 10
1.83970581
 20
-5.5717506
 10
1.83978877
 20
-5.57179858
 10
1.83987047
 20
-5.57184745
 10
1.83995091
 20
-5.57189711
 10
1.84003006
 20
-5.57194751
 10
1.84010791
 20
-5.57199856
 10
1.84018445
 20
-5.57205019
 10
1.84025965
 20
-5.57210233
 10
1.84033351
 20
-5.5721549
 10
1.840406
 20
-5.57220784
 10
1.84047712
 20
-5.57226105
 10
1.84054684
 20
-5.57231449
 10
1.84068203
 20
-5.57242169
 10
1.84081145
 20
-5.57252886
 10
1.84093498
 20
-5.5726354
 10
1.8410525
 20
-5.57274072
 10
1.84116386
 20
-5.57284423
 10
1.84126896
 20
-5.57294535
 10
1.84136765
 20
-5.57304347
 10
1.84145982
 20
-5.57313802
 10
1.84154535
 20
-5.5732284
 10
1.8416241
 20
-5.57331401
 10
1.84169594
 20
-5.57339427
 10
1.84176076
 20
-5.5734686
 10
1.84186881
 20
-5.57359705
 10
1.84194723
 20
-5.57369466
 10
1.84201118
 20
-5.57377841
  0
LWPOLYLINE
  5
574
100
AcDbEntity
  8
detail
 62
    16
  6
CONTINUOUS
370
     5
100
AcDbPolyline
 90
       86
 70
     0
 43
0.0
 10
1.83500024
 20
-5.57135713
 10
1.83503812
 20
-5.5713424
 10
1.83514555
 20
-5.57130298
 10
1.83522244
 20
-5.57127624
 10
1.83531322
 20
-5.57124602
 10
1.83541672
 20
-5.57121321
 10
1.83553178
 20
-5.5711787
 10
1.83565724
 20
-5.57114339
 10
1.83579193
 20
-5.57110817
 10
1.83593469
 20
-5.57107395
 10
1.83608435
 20
-5.5710416
 10
1.8361614
 20
-5.57102641
 10
1.83623974
 20
-5.57101203
 10
1.83631922
 20
-5.57099857
 10
1.8363997
 20
-5.57098614
 10
1.83648103
 20
-5.57097484
 10
1.83656306
 20
-5.57096481
 10
1.83664566
 20
-5.57095614
 10
1.83672866
 20
-5.57094895
 10
1.83680248
 20
-5.57094382
 10
1.83687631
 20
-5.57093983
 10
1.83695013
 20
-5.57093697
 10
1.83702393
 20
-5.57093523
 10
1.8370977
 20
-5.57093462
 10
1.83717144
 20
-5.57093513
 10
1.83724511
 20
-5.57093676
 10
1.83731873
 20
-5.57093949
 10
1.83739227
 20
-5.57094334
 10
1.83746572
 20
-5.5709483
 10
1.83753907
 20
-5.57095435
 10
1.83761231
 20
-5.5709615
 10
1.83768543
 20
-5.57096975
 10
1.83775841
 20
-5.57097909
 10
1.83783125
 20
-5.57098952
 10
1.83790393
 20
-5.57100103
 10
1.83797644
 20
-5.57101362
 10
1.83804876
 20
-5.57102729
 10
1.8381209
 20
-5.57104203
 10
1.83819282
 20
-5.57105784
 10
1.83826453
 20
-5.57107472
 10
1.83833602
 20
-5.57109266
 10
1.83840726
 20
-5.57111166
 10
1.83847825
 20
-5.57113172
 10
1.83854897
 20
-5.57115282
 10
1.83861942
 20
-5.57117498
 10
1.83868958
 20
-5.57119818
 10
1.83875944
 20
-5.57122242
 10
1.838829
 20
-5.57124769
 10
1.83889823
 20
-5.571274
 10
1.83896712
 20
-5.57130135
 10
1.83903567
 20
-5.57132971
 10
1.83912465
 20
-5.57136819
 10
1.8392127
 20
-5.571408
 10
1.8392998
 20
-5.57144909
 10
1.83938593
 20
-5.5714914
 10
1.83947108
 20
-5.57153486
 10
1.83955524
 20
-5.57157941
 10
1.83963838
 20
-5.57162499
 10
1.8397205
 20
-5.57167153
 10
1.83980157
 20
-5.57171898
 10
1.83988159
 20
-5.57176727
 10
1.83996054
 20
-5.57181634
 10
1.8400384
 20
-5.57186612
 10
1.84011517
 20
-5.57191657
 10
1.84019082
 20
-5.5719676
 10
1.84026534
 20
-5.57201916
 10
1.84033871
 20
-5.5720712
 10
1.84048196
 20
-5.57217641
 10
1.84062046
 20
-5.57228276
 10
1.84075407
 20
-5.57238973
 10
1.8408827
 20
-5.57249683
 10
1.8410062
 20
-5.57260356
 10
1.84112448
 20
-5.57270942
 10
1.8412374
 20
-5.57281392
 10
1.84134485
 20
-5.57291656
 10
1.84144671
 20
-5.57301683
 10
1.84154285
 20
-5.57311424
 10
1.84163317
 20
-5.5732083
 10
1.84171755
 20
-5.5732985
 10
1.84179585
 20
-5.57338435
 10
1.84186798
 20
-5.57346534
 10
1.84193379
 20
-5.57354099
 10
1.84199319
 20
-5.57361078
 10
1.84209223
 20
-5.57373084
 10
1.84216415
 20
-5.57382153
 10
1.84222283
 20
-5.57389886
  0
LWPOLYLINE
  5
575
100
AcDbEntity
  8
detail
 62
    16
  6
CONTINUOUS
370
     5
100
AcDbPolyline
 90
       17
 70
     0
 43
0.0
 10
1.83354127
 20
-5.57218752
 10
1.83353945
 20
-5.57218985
 10
1.83353463
 20
-5.57219596
 10
1.83352782
 20
-5.57220461
 10
1.83352002
 20
-5.57221453
 10
1.83351222
 20
-5.57222445
 10
1.83350541
 20
-5.5722331
 10
1.83350059
 20
-5.57223922
 10
1.83349877
 20
-5.57224154
 10
1.83349772
 20
-5.57224386
 10
1.83349496
 20
-5.57224997
 10
1.83349106
 20
-5.57225862
 10
1.8334866
 20
-5.57226853
 10
1.83348213
 20
-5.57227844
 10
1.83347823
 20
-5.57228709
 10
1.83347547
 20
-5.5722932
 10
1.83347442
 20
-5.57229552
  0
LWPOLYLINE
  5
576
100
AcDbEntity
  8
detail
 62
    16
  6
CONTINUOUS
370
     5
100
AcDbPolyline
 90
       19
 70
     0
 43
0.0
 10
1.83354127
 20
-5.57218752
 10
1.83354906
 20
-5.57217828
 10
1.83357147
 20
-5.57215268
 10
1.8336071
 20
-5.57211387
 10
1.83365451
 20
-5.57206503
 10
1.8337123
 20
-5.57200933
 10
1.83377904
 20
-5.57194993
 10
1.83381533
 20
-5.57191984
 10
1.83385333
 20
-5.57189002
 10
1.83389285
 20
-5.57186085
 10
1.83393373
 20
-5.57183274
 10
1.83394559
 20
-5.57182499
 10
1.83395754
 20
-5.57181736
 10
1.83396957
 20
-5.57180985
 10
1.8339817
 20
-5.57180246
 10
1.83399391
 20
-5.5717952
 10
1.83400619
 20
-5.57178808
 10
1.83401855
 20
-5.57178108
 10
1.83403099
 20
-5.57177422
  0
LWPOLYLINE
  5
577
100
AcDbEntity
  8
detail
 62
    16
  6
CONTINUOUS
370
     5
100
AcDbPolyline
 90
       17
 70
     0
 43
0.0
 10
1.83396082
 20
-5.5719143
 10
1.83396252
 20
-5.57191312
 10
1.83396735
 20
-5.57190984
 10
1.8339749
 20
-5.57190481
 10
1.83398474
 20
-5.57189839
 10
1.83399648
 20
-5.57189094
 10
1.83400968
 20
-5.57188281
 10
1.83402395
 20
-5.57187437
 10
1.83403887
 20
-5.57186597
 10
1.83404703
 20
-5.57186158
 10
1.83405498
 20
-5.57185742
 10
1.83406245
 20
-5.57185359
 10
1.83406917
 20
-5.57185022
 10
1.83407487
 20
-5.57184741
 10
1.83407928
 20
-5.57184526
 10
1.83408212
 20
-5.5718439
 10
1.83408313
 20
-5.57184342
  0
LWPOLYLINE
  5
578
100
AcDbEntity
  8
detail
 62
    16
  6
CONTINUOUS
370
     5
100
AcDbPolyline
 90
       17
 70
     0
 43
0.0
 10
1.83470031
 20
-5.57151336
 10
1.83469367
 20
-5.57151605
 10
1.83467617
 20
-5.57152316
 10
1.83465141
 20
-5.57153321
 10
1.83462304
 20
-5.57154472
 10
1.83459466
 20
-5.57155624
 10
1.83456991
 20
-5.57156629
 10
1.8345524
 20
-5.5715734
 10
1.83454576
 20
-5.57157609
 10
1.83453722
 20
-5.57157685
 10
1.83451473
 20
-5.57157885
 10
1.83448292
 20
-5.57158168
 10
1.83444645
 20
-5.57158492
 10
1.83440999
 20
-5.57158816
 10
1.83437818
 20
-5.57159098
 10
1.83435568
 20
-5.57159298
 10
1.83434715
 20
-5.57159374
  0
LWPOLYLINE
  5
579
100
AcDbEntity
  8
detail
 62
    16
  6
CONTINUOUS
370
     5
100
AcDbPolyline
 90
       17
 70
     0
 43
0.0
 10
1.83468515
 20
-5.57162802
 10
1.8346784
 20
-5.57163044
 10
1.83466062
 20
-5.57163684
 10
1.83463549
 20
-5.57164589
 10
1.83460667
 20
-5.57165626
 10
1.83457786
 20
-5.57166663
 10
1.83455272
 20
-5.57167567
 10
1.83453494
 20
-5.57168207
 10
1.8345282
 20
-5.5716845
 10
1.83451964
 20
-5.57168491
 10
1.83449708
 20
-5.57168601
 10
1.83446518
 20
-5.57168756
 10
1.83442862
 20
-5.57168933
 10
1.83439205
 20
-5.57169111
 10
1.83436016
 20
-5.57169266
 10
1.8343376
 20
-5.57169375
 10
1.83432904
 20
-5.57169417
  0
LWPOLYLINE
  5
57A
100
AcDbEntity
  8
detail
 62
    16
  6
CONTINUOUS
370
     5
100
AcDbPolyline
 90
       17
 70
     0
 43
0.0
 10
1.83470031
 20
-5.57151336
 10
1.83470729
 20
-5.57150996
 10
1.83472569
 20
-5.57150099
 10
1.8347517
 20
-5.57148832
 10
1.83478151
 20
-5.57147379
 10
1.83481133
 20
-5.57145926
 10
1.83483734
 20
-5.57144659
 10
1.83485573
 20
-5.57143763
 10
1.83486271
 20
-5.57143422
 10
1.83486862
 20
-5.57143091
 10
1.8348842
 20
-5.57142218
 10
1.83490623
 20
-5.57140983
 10
1.83493148
 20
-5.57139568
 10
1.83495672
 20
-5.57138152
 10
1.83497875
 20
-5.57136918
 10
1.83499433
 20
-5.57136044
 10
1.83500024
 20
-5.57135713
  0
LWPOLYLINE
  5
57B
100
AcDbEntity
  8
detail
 62
    16
  6
CONTINUOUS
370
     5
100
AcDbPolyline
 90
       25
 70
     0
 43
0.0
 10
1.83505884
 20
-5.57140733
 10
1.83505108
 20
-5.5714125
 10
1.83503061
 20
-5.57142611
 10
1.83500167
 20
-5.57144535
 10
1.83496849
 20
-5.57146741
 10
1.83493532
 20
-5.57148947
 10
1.83490638
 20
-5.57150872
 10
1.83488591
 20
-5.57152233
 10
1.83487814
 20
-5.57152749
 10
1.83487474
 20
-5.57152929
 10
1.83486575
 20
-5.57153403
 10
1.83485305
 20
-5.57154074
 10
1.83483849
 20
-5.57154843
 10
1.83482393
 20
-5.57155611
 10
1.83481123
 20
-5.57156282
 10
1.83480224
 20
-5.57156756
 10
1.83479883
 20
-5.57156936
 10
1.83479833
 20
-5.57157088
 10
1.834797
 20
-5.57157489
 10
1.83479513
 20
-5.57158056
 10
1.83479298
 20
-5.57158707
 10
1.83479083
 20
-5.57159357
 10
1.83478896
 20
-5.57159924
 10
1.83478764
 20
-5.57160325
 10
1.83478713
 20
-5.57160477
  0
LINE
  5
57C
100
AcDbEntity
  8
detail
 62
    16
  6
CONTINUOUS
370
     5
100
AcDbLine
 10
1.84086309
 20
-5.57282955
 30
0.0
 11
1.84148081
 21
-5.57217501
 31
0.0
  0
LINE
  5
57D
100
AcDbEntity
  8
detail
 62
    16
  6
CONTINUOUS
370
     5
100
AcDbLine
 10
1.8568264
 20
-5.51723166
 30
0.25
 11
1.9307099
 21
-5.51723166
 31
0.25
  0
LINE
  5
57E
100
AcDbEntity
  8
detail
 62
    16
  6
CONTINUOUS
370
     5
100
AcDbLine
 10
1.8568264
 20
-5.51823166
 30
0.25
 11
1.8568264
 21
-5.49851047
 31
0.25
  0
LWPOLYLINE
  5
57F
100
AcDbEntity
  8
detail
 62
    16
  6
CONTINUOUS
370
     5
100
AcDbPolyline
 90
        4
 70
     0
 43
0.0
 38
0.25
 10
1.9307099
 20
-5.51823166
 10
1.8573264
 20
-5.51823166
 10
1.8573264
 20
-5.52623166
 10
1.9307099
 20
-5.52623166
  0
LINE
  5
580
100
AcDbEntity
  8
detail
 62
     7
  6
CONTINUOUS
370
     5
100
AcDbLine
 10
1.9307099
 20
-5.53023166
 30
0.25
 11
1.8403264
 21
-5.53023166
 31
0.25
  0
LWPOLYLINE
  5
581
100
AcDbEntity
  8
detail
 62
     7
  6
CONTINUOUS
370
     5
100
AcDbPolyline
 90
        3
 70
     0
 43
0.0
 38
0.25
 10
1.8403264
 20
-5.53023166
 10
1.8403264
 20
-5.53023166
 10
1.8403264
 20
-5.55423166
  0
LINE
  5
582
100
AcDbEntity
  8
detail
 62
     7
  6
CONTINUOUS
370
     5
100
AcDbLine
 10
1.8403264
 20
-5.55423166
 30
0.25
 11
1.9307099
 21
-5.55423166
 31
0.25
  0
LINE
  5
583
100
AcDbEntity
  8
detail
 62
     7
  6
CONTINUOUS
370
     5
100
AcDbLine
 10
1.8553264
 20
-5.50923166
 30
0.0
 11
1.8553264
 21
-5.49851047
 31
0.0
  0
LWPOLYLINE
  5
584
100
AcDbEntity
  8
detail
 62
     7
  6
CONTINUOUS
370
     5
100
AcDbPolyline
 90
        3
 70
     0
 43
0.0
 10
1.8403264
 20
-5.49851047
 10
1.8403264
 20
-5.50923166
 10
1.8553264
 20
-5.50923166
  0
LINE
  5
585
100
AcDbEntity
  8
detail
 62
    16
  6
CONTINUOUS
370
     5
100
AcDbLine
 10
1.8223264
 20
-5.58923166
 30
0.0
 11
1.8223264
 21
-5.49851047
 31
0.0
  0
LINE
  5
586
100
AcDbEntity
  8
detail
 62
    16
  6
CONTINUOUS
370
     5
100
AcDbLine
 10
1.8313264
 20
-5.56323166
 30
0.25
 11
1.8493264
 21
-5.56323166
 31
0.25
  0
3DFACE
  5
587
100
AcDbEntity
  8
detail
 62
    16
  6
CONTINUOUS
370
     5
100
AcDbFace
 70
    18
 10
1.8557264
 20
-5.592513
 30
0.25
 11
1.8557264
 21
-5.64061293
 31
0.25
 12
1.8562264
 22
-5.64061293
 32
0.25
 13
1.8562264
 23
-5.592513
 33
0.25
  0
LWPOLYLINE
  5
588
100
AcDbEntity
  8
detail
 62
    16
  6
CONTINUOUS
370
     5
100
AcDbPolyline
 90
        5
 70
     0
 43
0.0
 38
0.25
 10
1.85313626
 20
-5.592513
 10
1.85418133
 20
-5.592513
 10
1.85418133
 20
-5.5933268
 10
1.85313626
 20
-5.5933268
 10
1.85313626
 20
-5.592513
  0
3DFACE
  5
589
100
AcDbEntity
  8
detail
 62
    16
  6
CONTINUOUS
370
     5
100
AcDbFace
 70
    18
 10
1.85418133
 20
-5.592513
 30
0.25
 11
1.85418133
 21
-5.64061293
 31
0.25
 12
1.85468133
 22
-5.64061293
 32
0.25
 13
1.85468133
 23
-5.592513
 33
0.25
  0
LWPOLYLINE
  5
58A
100
AcDbEntity
  8
detail
 62
    16
  6
CONTINUOUS
370
     5
100
AcDbPolyline
 90
        5
 70
     0
 43
0.0
 38
0.25
 10
1.85468133
 20
-5.592513
 10
1.8557264
 20
-5.592513
 10
1.8557264
 20
-5.5933268
 10
1.85468133
 20
-5.5933268
 10
1.85468133
 20
-5.592513
  0
LWPOLYLINE
  5
58B
100
AcDbEntity
  8
detail
 62
    16
  6
CONTINUOUS
370
     5
100
AcDbPolyline
 90
        5
 70
     0
 43
0.0
 38
0.25
 10
1.85263626
 20
-5.592113
 10
1.8562264
 20
-5.592113
 10
1.8562264
 20
-5.592513
 10
1.85263626
 20
-5.592513
 10
1.85263626
 20
-5.592113
  0
LINE
  5
58C
100
AcDbEntity
  8
detail
 62
    16
  6
CONTINUOUS
370
     5
100
AcDbLine
 10
1.8579264
 20
-5.593413
 30
0.0
 11
1.8579264
 21
-5.64061293
 31
0.0
  0
LINE
  5
58D
100
AcDbEntity
  8
detail
 62
    16
  6
CONTINUOUS
370
     5
100
AcDbLine
 10
1.8501764
 20
-5.593413
 30
0.0
 11
1.8501764
 21
-5.64061293
 31
0.0
  0
LWPOLYLINE
  5
58E
100
AcDbEntity
  8
detail
 62
    16
  6
CONTINUOUS
370
     5
100
AcDbPolyline
 90
       10
 70
     1
 43
0.0
 10
1.8563264
 20
-5.55423166
 10
1.8563264
 20
-5.587513
 10
1.85154154
 20
-5.587513
 10
1.8513106
 20
-5.587913
 10
1.8505264
 20
-5.587913
 10
1.8505264
 20
-5.587963
 10
1.8505264
 20
-5.590513
 10
1.8503764
 20
-5.590513
 10
1.8493264
 20
-5.59023166
 10
1.8493264
 20
-5.55423166
  0
LWPOLYLINE
  5
58F
100
AcDbEntity
  8
detail
 62
    16
  6
CONTINUOUS
370
     5
100
AcDbPolyline
 90
        5
 70
     1
 43
0.0
 10
1.8523764
 20
-5.588713
 10
1.8523764
 20
-5.587513
 10
1.85198616
 20
-5.587513
 10
1.85198616
 20
-5.58921969
 10
1.8523764
 20
-5.58921969
  0
LWPOLYLINE
  5
590
100
AcDbEntity
  8
detail
 62
    16
  6
CONTINUOUS
370
     5
100
AcDbPolyline
 90
       24
 70
     1
 43
0.0
 10
1.8523764
 20
-5.588713
 10
1.8546064
 20
-5.588713
 10
1.8546064
 20
-5.589933
 10
1.8547064
 20
-5.589933
 10
1.8562464
 20
-5.589933
 10
1.8562464
 20
-5.588713
 10
1.8566264
 20
-5.588713
 10
1.8566264
 20
-5.58670747
 10
1.8580264
 20
-5.58685462
 10
1.8580264
 20
-5.592113
 10
1.8579264
 20
-5.592113
 10
1.8579264
 20
-5.593413
 10
1.8577916
 20
-5.59345949
 10
1.8564764
 20
-5.593913
 10
1.8564764
 20
-5.592113
 10
1.85222227
 20
-5.592113
 10
1.85222227
 20
-5.593913
 10
1.8520764
 20
-5.593913
 10
1.8501764
 20
-5.5934039
 10
1.8501764
 20
-5.59133358
 10
1.8506264
 20
-5.591213
 10
1.8506264
 20
-5.589913
 10
1.8523764
 20
-5.589913
 10
1.8523764
 20
-5.588753
  0
LWPOLYLINE
  5
591
100
AcDbEntity
  8
detail
 62
    16
  6
CONTINUOUS
370
     5
100
AcDbPolyline
 90
        5
 70
     1
 43
0.0
 10
1.85662042
 20
-5.58736098
 10
1.8563264
 20
-5.58736098
 10
1.8563264
 20
-5.58670747
 10
1.8566264
 20
-5.58670747
 10
1.85662142
 20
-5.5873656
  0
3DFACE
  5
592
100
AcDbEntity
  8
detail
 62
    16
  6
CONTINUOUS
370
     5
100
AcDbFace
 70
     2
 10
1.85263626
 20
-5.592513
 30
0.25
 11
1.85263626
 21
-5.64061293
 31
0.25
 12
1.85313626
 22
-5.64061293
 32
0.25
 13
1.85313626
 23
-5.592513
 33
0.25
  0
LINE
  5
593
100
AcDbEntity
  8
detail
 62
    16
  6
CONTINUOUS
370
     5
100
AcDbLine
 10
1.8208264
 20
-5.59023166
 30
0.25
 11
1.8313264
 21
-5.59023166
 31
0.25
  0
LINE
  5
594
100
AcDbEntity
  8
detail
 62
    16
  6
CONTINUOUS
370
     5
100
AcDbLine
 10
1.8223264
 20
-5.58923166
 30
0.25
 11
1.8313264
 21
-5.58923166
 31
0.25
  0
LINE
  5
595
100
AcDbEntity
  8
detail
 62
    16
  6
CONTINUOUS
370
     5
100
AcDbLine
 10
1.8313264
 20
-5.59023166
 30
0.25
 11
1.8313264
 21
-5.55423166
 31
0.25
  0
LINE
  5
596
100
AcDbEntity
  8
detail
 62
    16
  6
CONTINUOUS
370
     5
100
AcDbLine
 10
1.8323264
 20
-5.55423166
 30
0.25
 11
1.8493264
 21
-5.55423166
 31
0.25
  0
LINE
  5
597
100
AcDbEntity
  8
detail
 62
   250
  6
CADWORK_LK1
370
     5
100
AcDbLine
 10
1.8223264
 20
-5.67445734
 30
0.0
 11
1.8223264
 21
-5.56323166
 31
0.0
  0
LINE
  5
598
100
AcDbEntity
  8
detail
 62
    16
  6
CONTINUOUS
370
     5
100
AcDbLine
 10
1.83667443
 20
-5.58851329
 30
0.0
 11
1.83667443
 21
-5.67445734
 31
0.0
  0
LINE
  5
599
100
AcDbEntity
  8
detail
 62
    16
  6
CONTINUOUS
370
     5
100
AcDbLine
 10
1.83697443
 20
-5.58851329
 30
0.0
 11
1.83697443
 21
-5.67445734
 31
0.0
  0
LINE
  5
59A
100
AcDbEntity
  8
detail
 62
    16
  6
CONTINUOUS
370
     5
100
AcDbLine
 10
1.83487443
 20
-5.58851329
 30
0.0
 11
1.83487443
 21
-5.67445734
 31
0.0
  0
LINE
  5
59B
100
AcDbEntity
  8
detail
 62
    16
  6
CONTINUOUS
370
     5
100
AcDbLine
 10
1.83427443
 20
-5.58675006
 30
0.0
 11
1.83427443
 21
-5.67445734
 31
0.0
  0
LINE
  5
59C
100
AcDbEntity
  8
detail
 62
    16
  6
CONTINUOUS
370
     5
100
AcDbLine
 10
1.83457443
 20
-5.58851329
 30
0.0
 11
1.83457443
 21
-5.67445734
 31
0.0
  0
LINE
  5
59D
100
AcDbEntity
  8
detail
 62
    16
  6
CONTINUOUS
370
     5
100
AcDbLine
 10
1.83254238
 20
-5.58672938
 30
0.0
 11
1.83254238
 21
-5.67445734
 31
0.0
  0
LINE
  5
59E
100
AcDbEntity
  8
detail
 62
    16
  6
CONTINUOUS
370
     5
100
AcDbLine
 10
1.83282681
 20
-5.58672938
 30
0.0
 11
1.83282681
 21
-5.67445734
 31
0.0
  0
3DFACE
  5
59F
100
AcDbEntity
  8
detail
 62
    16
  6
CONTINUOUS
370
     5
100
AcDbFace
 70
     8
 10
1.85263626
 20
-5.64061293
 30
0.25
 11
1.85263626
 21
-5.67445734
 31
0.25
 12
1.85313626
 22
-5.67445734
 32
0.25
 13
1.85313626
 23
-5.64061293
 33
0.25
  0
3DFACE
  5
5A0
100
AcDbEntity
  8
detail
 62
    16
  6
CONTINUOUS
370
     5
100
AcDbFace
 70
     8
 10
1.8557264
 20
-5.64061293
 30
0.25
 11
1.8557264
 21
-5.67445734
 31
0.25
 12
1.8562264
 22
-5.67445734
 32
0.25
 13
1.8562264
 23
-5.64061293
 33
0.25
  0
3DFACE
  5
5A1
100
AcDbEntity
  8
detail
 62
    16
  6
CONTINUOUS
370
     5
100
AcDbFace
 70
     8
 10
1.85418133
 20
-5.64061293
 30
0.25
 11
1.85418133
 21
-5.67445734
 31
0.25
 12
1.85468133
 22
-5.67445734
 32
0.25
 13
1.85468133
 23
-5.64061293
 33
0.25
  0
LINE
  5
5A2
100
AcDbEntity
  8
detail
 62
    16
  6
CONTINUOUS
370
     5
100
AcDbLine
 10
1.8579264
 20
-5.67445734
 30
0.0
 11
1.8579264
 21
-5.64061293
 31
0.0
  0
LINE
  5
5A3
100
AcDbEntity
  8
detail
 62
    16
  6
CONTINUOUS
370
     5
100
AcDbLine
 10
1.8501764
 20
-5.67445734
 30
0.0
 11
1.8501764
 21
-5.64061293
 31
0.0
  0
LINE
  5
5A4
100
AcDbEntity
  8
detail
 62
    16
  6
CONTINUOUS
370
     5
100
AcDbLine
 10
1.8208264
 20
-5.67445734
 30
0.0
 11
1.8208264
 21
-5.49851047
 31
0.0
  0
LINE
  5
5A5
100
AcDbEntity
  8
detail
 62
     4
  6
CONTINUOUS
370
     5
100
AcDbLine
 10
1.81464434
 20
-5.62408786
 30
0.0
 11
1.83351139
 21
-5.62408786
 31
0.0
  0
LINE
  5
5A6
100
AcDbEntity
  8
detail
 62
     4
  6
CONTINUOUS
370
     5
100
AcDbLine
 10
1.87637776
 20
-5.62975335
 30
0.0
 11
1.83604507
 21
-5.62975335
 31
0.0
  0
LWPOLYLINE
  5
5A7
100
AcDbEntity
  8
detail
 62
     4
  6
CONTINUOUS
370
     5
100
AcDbPolyline
 90
        3
 70
     0
 43
0.0
 10
1.87640024
 20
-5.59939628
 10
1.85161921
 20
-5.59939628
 10
1.84319029
 20
-5.58958501
  0
LWPOLYLINE
  5
5A8
100
AcDbEntity
  8
detail
 62
     4
  6
CONTINUOUS
370
     5
100
AcDbPolyline
 90
        3
 70
     0
 43
0.0
 10
1.81933082
 20
-5.5956427
 10
1.82978269
 20
-5.5956427
 10
1.84039189
 20
-5.57853329
  0
CIRCLE
  5
5A9
100
AcDbEntity
  8
detail
 62
     4
  6
CONTINUOUS
370
     9
100
AcDbCircle
 10
1.84039189
 20
-5.57853329
 30
0.0
 40
0.00039661
  0
CIRCLE
  5
5AA
100
AcDbEntity
  8
detail
 62
     4
  6
CONTINUOUS
370
     9
100
AcDbCircle
 10
1.84319029
 20
-5.58958501
 30
0.0
 40
0.00039661
  0
CIRCLE
  5
5AB
100
AcDbEntity
  8
detail
 62
     4
  6
CONTINUOUS
370
     9
100
AcDbCircle
 10
1.83351139
 20
-5.62408786
 30
0.0
 40
0.00039661
  0
CIRCLE
  5
5AC
100
AcDbEntity
  8
detail
 62
     4
  6
CONTINUOUS
370
     9
100
AcDbCircle
 10
1.83604507
 20
-5.62970332
 30
0.0
 40
0.00039661
  0
LINE
  5
5AD
100
AcDbEntity
  8
detail
 62
     4
  6
CONTINUOUS
370
     5
100
AcDbLine
 10
1.81617354
 20
-5.6444031
 30
0.0
 11
1.82796541
 21
-5.6444031
 31
0.0
  0
CIRCLE
  5
5AE
100
AcDbEntity
  8
detail
 62
     4
  6
CONTINUOUS
370
     9
100
AcDbCircle
 10
1.82796541
 20
-5.6444031
 30
0.0
 40
0.00039661
  0
LINE
  5
5AF
100
AcDbEntity
  8
detail
 62
    16
  6
CONTINUOUS
370
     5
100
AcDbLine
 10
1.8223264
 20
-5.53923166
 30
0.25
 11
1.8403264
 21
-5.53923166
 31
0.25
  0
LINE
  5
5B0
100
AcDbEntity
  8
detail
 62
     4
  6
CONTINUOUS
370
     5
100
AcDbLine
 10
1.81464434
 20
-5.55545937
 30
0.0
 11
1.82764891
 21
-5.55545937
 31
0.0
  0
CIRCLE
  5
5B1
100
AcDbEntity
  8
detail
 62
     4
  6
CONTINUOUS
370
     9
100
AcDbCircle
 10
1.82764891
 20
-5.55545937
 30
0.0
 40
0.00039661
  0
LINE
  5
5B2
100
AcDbEntity
  8
detail
 62
     4
  6
CONTINUOUS
370
     5
100
AcDbLine
 10
1.87637776
 20
-5.5688478
 30
0.0
 11
1.84890294
 21
-5.5688478
 31
0.0
  0
LWPOLYLINE
  5
5B3
100
AcDbEntity
  8
detail
 62
     4
  6
CONTINUOUS
370
     5
100
AcDbPolyline
 90
        3
 70
     0
 43
0.0
 10
1.80941251
 20
-5.54721825
 10
1.83355051
 20
-5.54721825
 10
1.8405935
 20
-5.55833504
  0
CIRCLE
  5
5B4
100
AcDbEntity
  8
detail
 62
     4
  6
CONTINUOUS
370
     9
100
AcDbCircle
 10
1.8405935
 20
-5.55833504
 30
0.0
 40
0.00039661
  0
CIRCLE
  5
5B5
100
AcDbEntity
  8
detail
 62
     4
  6
CONTINUOUS
370
     9
100
AcDbCircle
 10
1.84890294
 20
-5.5688478
 30
0.0
 40
0.00039661
  0
TEXT
  5
5B6
100
AcDbEntity
  8
detail
 62
    16
370
     5
100
AcDbText
 10
1.99295039
 20
-5.5750472
 30
0.0
 40
0.0036
  1

  7
ARIAL
 50
0.0
 41
0.89
 51
0.0
100
AcDbText
  0
TEXT
  5
5B7
100
AcDbEntity
  8
detail
 62
     7
370
    18
100
AcDbText
 10
1.8928099
 20
-5.66661662
 30
0.0
 40
0.0025
  1
Massangabe in mm
  7
FRUTIGER_55_ROMAN
 50
0.0
 41
0.89
 51
0.0
100
AcDbText
  0
TEXT
  5
5B8
100
AcDbEntity
  8
detail
 62
    16
370
     5
100
AcDbText
 10
2.2463934
 20
-5.49173754
 30
0.0
 40
0.0036
  1

  7
ARIAL
 50
0.0
 41
0.89
 51
0.0
100
AcDbText
  0
TEXT
  5
5B9
100
AcDbEntity
  8
detail
 62
     7
370
    18
100
AcDbText
 10
1.79551905
 20
-5.62481941
 30
0.0
 40
0.0016
  1
Führungsschiene mit
  7
FRUTIGER_55_ROMAN
 50
0.0
 41
0.89
 51
0.0
100
AcDbText
  0
TEXT
  5
5BA
100
AcDbEntity
  8
detail
 62
     7
370
    18
100
AcDbText
 10
1.79551905
 20
-5.62775127
 30
0.0
 40
0.0016
  1
Bohrungen
  7
FRUTIGER_55_ROMAN
 50
0.0
 41
0.89
 51
0.0
100
AcDbText
  0
TEXT
  5
5BB
100
AcDbEntity
  8
detail
 62
     7
370
    18
100
AcDbText
 10
1.87851324
 20
-5.63048489
 30
0.0
 40
0.0016
  1
Führungsschiene für Insektenschutznetz
  7
FRUTIGER_55_ROMAN
 50
0.0
 41
0.89
 51
0.0
100
AcDbText
  0
TEXT
  5
5BC
100
AcDbEntity
  8
detail
 62
     7
370
    18
100
AcDbText
 10
1.87851324
 20
-5.60003416
 30
0.0
 40
0.0016
  1
Untersichtsblende (Revisionsblech)
  7
FRUTIGER_55_ROMAN
 50
0.0
 41
0.89
 51
0.0
100
AcDbText
  0
TEXT
  5
5BD
100
AcDbEntity
  8
detail
 62
     7
370
    18
100
AcDbText
 10
1.87851324
 20
-5.60318096
 30
0.0
 40
0.0016
  1
seitlich in Lagerplatte gehalten
  7
FRUTIGER_55_ROMAN
 50
0.0
 41
0.89
 51
0.0
100
AcDbText
  0
TEXT
  5
5BE
100
AcDbEntity
  8
detail
 62
     7
370
    18
100
AcDbText
 10
1.79551905
 20
-5.59619353
 30
0.0
 40
0.0016
  1
Rollladen ECOMONT 16+
  7
FRUTIGER_55_ROMAN
 50
0.0
 41
0.89
 51
0.0
100
AcDbText
  0
TEXT
  5
5BF
100
AcDbEntity
  8
detail
 62
     7
370
    18
100
AcDbText
 10
1.79551905
 20
-5.5992896
 30
0.0
 40
0.0016
  1
mit Lagerkonsole
  7
FRUTIGER_55_ROMAN
 50
0.0
 41
0.89
 51
0.0
100
AcDbText
  0
TEXT
  5
5C0
100
AcDbEntity
  8
detail
 62
     7
370
    18
100
AcDbText
 10
1.79551905
 20
-5.64513465
 30
0.0
 40
0.0016
  1
Isol. Leibungselement
  7
FRUTIGER_55_ROMAN
 50
0.0
 41
0.89
 51
0.0
100
AcDbText
  0
TEXT
  5
5C1
100
AcDbEntity
  8
detail
 62
     7
370
    18
100
AcDbText
 10
1.79551905
 20
-5.6480665
 30
0.0
 40
0.0016
  1
Führungsschiene kann
  7
FRUTIGER_55_ROMAN
 50
0.0
 41
0.89
 51
0.0
100
AcDbText
  0
TEXT
  5
5C2
100
AcDbEntity
  8
detail
 62
     7
370
    18
100
AcDbText
 10
1.79551905
 20
-5.65099031
 30
0.0
 40
0.0016
  1
variabel befestigt werden
  7
FRUTIGER_55_ROMAN
 50
0.0
 41
0.89
 51
0.0
100
AcDbText
  0
TEXT
  5
5C3
100
AcDbEntity
  8
detail
 62
     7
370
    18
100
AcDbText
 10
1.79551905
 20
-5.5533755
 30
0.0
 40
0.0016
  1
Schürzenelement
  7
FRUTIGER_55_ROMAN
 50
0.0
 41
0.89
 51
0.0
100
AcDbText
  0
TEXT
  5
5C4
100
AcDbEntity
  8
detail
 62
     7
370
    18
100
AcDbText
 10
1.79551905
 20
-5.55630736
 30
0.0
 40
0.0016
  1
Polystyrol EPS mit
  7
FRUTIGER_55_ROMAN
 50
0.0
 41
0.89
 51
0.0
100
AcDbText
  0
TEXT
  5
5C5
100
AcDbEntity
  8
detail
 62
     7
370
    18
100
AcDbText
 10
1.79551905
 20
-5.55915446
 30
0.0
 40
0.0016
  1
integrierter Bewehrung
  7
FRUTIGER_55_ROMAN
 50
0.0
 41
0.89
 51
0.0
100
AcDbText
  0
TEXT
  5
5C6
100
AcDbEntity
  8
detail
 62
     7
370
    18
100
AcDbText
 10
1.87851324
 20
-5.56968878
 30
0.0
 40
0.0016
  1
Variante Aufdoppelung auf Rahmenverbreiterung
  7
FRUTIGER_55_ROMAN
 50
0.0
 41
0.89
 51
0.0
100
AcDbText
  0
TEXT
  5
5C7
100
AcDbEntity
  8
detail
 62
     7
370
    18
100
AcDbText
 10
1.87851324
 20
-5.57283558
 30
0.0
 40
0.0016
  1
mit Rav-Isol. Element
  7
FRUTIGER_55_ROMAN
 50
0.0
 41
0.89
 51
0.0
100
AcDbText
  0
TEXT
  5
5C8
100
AcDbEntity
  8
detail
 62
     7
370
    18
100
AcDbText
 10
1.79551905
 20
-5.54794979
 30
0.0
 40
0.0016
  1
Isolation EPS
  7
FRUTIGER_55_ROMAN
 50
0.0
 41
0.89
 51
0.0
100
AcDbText
  0
TEXT
  5
5C9
100
AcDbEntity
  8
detail
 62
   160
370
    18
100
AcDbText
 10
1.80882883
 20
-5.56709807
 30
0.0
 40
0.0012
  1
Systemhöhe
  7
FRUTIGER_55_ROMAN
 50
0.0
 41
0.94
 51
0.0
100
AcDbText
  0
TEXT
  5
5CA
100
AcDbEntity
  8
detail
 62
   160
370
    18
100
AcDbText
 10
1.80882883
 20
-5.57535841
 30
0.0
 40
0.0012
  1
Wellenhöhe
  7
FRUTIGER_55_ROMAN
 50
0.0
 41
0.94
 51
0.0
100
AcDbText
  0
TEXT
  5
5CB
100
AcDbEntity
  8
detail
 62
   160
370
    18
100
AcDbText
 10
1.80882883
 20
-5.58573366
 30
0.0
 40
0.0012
  1
Führungshöhe
  7
FRUTIGER_55_ROMAN
 50
0.0
 41
0.94
 51
0.0
100
AcDbText
  0
TEXT
  5
5CC
100
AcDbEntity
  8
detail
 62
   160
370
    18
100
AcDbText
 10
1.83556741
 20
-5.61583417
 30
0.0
 40
0.0016
  1
Sturz Breite
  7
FRUTIGER_55_ROMAN
 50
0.0
 41
0.94
 51
0.0
100
AcDbText
  0
TEXT
  5
5CD
100
AcDbEntity
  8
detail
 62
   160
370
    18
100
AcDbText
 10
1.87284159
 20
-5.58142807
 30
0.0
 40
0.0016
  1
Sturz Höhe
  7
FRUTIGER_55_ROMAN
 50
89.9999975
 41
0.94
 51
0.0
100
AcDbText
  0
TEXT
  5
5CE
100
AcDbEntity
  8
detail
 62
     7
370
    18
100
AcDbText
 10
1.87851324
 20
-5.60510096
 30
0.0
 40
0.0016
  1

  7
FRUTIGER_55_ROMAN
 50
0.0
 41
0.89
 51
0.0
100
AcDbText
  0
TEXT
  5
5CF
100
AcDbEntity
  8
detail
 62
   160
370
    18
100
AcDbText
 10
1.83562942
 20
-5.66315936
 30
0.0
 40
0.0016
  1
Führungsschiene
  7
FRUTIGER_55_ROMAN
 50
0.0
 41
0.94
 51
0.0
100
AcDbText
  0
INSERT
  5
5D0
100
AcDbEntity
  8
detail
 62
     0
370
    -3
100
AcDbBlockReference
  2
*D1
 10
0.0
 20
0.0
 30
0.0
  0
INSERT
  5
5D1
100
AcDbEntity
  8
detail
 62
     0
370
    -3
100
AcDbBlockReference
  2
*D2
 10
0.0
 20
0.0
 30
0.0
  0
INSERT
  5
5D2
100
AcDbEntity
  8
detail
 62
     0
370
    -3
100
AcDbBlockReference
  2
*D3
 10
0.0
 20
0.0
 30
0.0
  0
INSERT
  5
5D3
100
AcDbEntity
  8
detail
 62
     0
370
    -3
100
AcDbBlockReference
  2
*D4
 10
0.0
 20
0.0
 30
0.0
  0
INSERT
  5
5D4
100
AcDbEntity
  8
detail
 62
     0
370
    -3
100
AcDbBlockReference
  2
*D5
 10
0.0
 20
0.0
 30
0.0
  0
INSERT
  5
5D5
100
AcDbEntity
  8
detail
 62
     0
370
    -3
100
AcDbBlockReference
  2
*D6
 10
0.0
 20
0.0
 30
0.0
  0
INSERT
  5
5D6
100
AcDbEntity
  8
detail
 62
     0
370
    -3
100
AcDbBlockReference
  2
*D7
 10
0.0
 20
0.0
 30
0.0
  0
INSERT
  5
5D7
100
AcDbEntity
  8
detail
 62
     0
370
    -3
100
AcDbBlockReference
  2
*D8
 10
0.0
 20
0.0
 30
0.0
  0
INSERT
  5
5D8
100
AcDbEntity
  8
detail
 62
     0
370
     9
100
AcDbBlockReference
  2
*D9
 10
0.0
 20
0.0
 30
0.0
  0
INSERT
  5
5D9
100
AcDbEntity
  8
detail
 62
     0
370
    -3
100
AcDbBlockReference
  2
*D10
 10
0.0
 20
0.0
 30
0.0
  0
ENDSEC
  0
SECTION
  2
OBJECTS
  0
DICTIONARY
  5
1
100
AcDbDictionary
  3
ACAD_GROUP
350
2
  3
ACAD_MLINESTYLE
350
3
  0
DICTIONARY
  5
2
102
{CDWK_REACTORS
330
1
102
}
100
AcDbDictionary
  0
DICTIONARY
  5
3
102
{CDWK_REACTORS
330
1
102
}
100
AcDbDictionary
  3
STANDARD
350
4
  0
MLINESTYLE
  5
4
102
{CDWK_REACTORS
330
3
102
}
100
AcDbMlineStyle
  2
STANDARD
 70
     0
  3

 62
     0
 51
90.0
 52
90.0
 71
     2
 49
0.5
 62
   256
  6
BYLAYER
 49
-0.5
 62
   256
  6
BYLAYER
  0
ENDSEC
  0
EOF
